música
Buscador

Acorde de El Mundo - Efecto Mariposa

Letra de El Mundo

e------------------------------------------|

B------------------------------------------|

G------------------------------------------|

D--0-2-4-5-7---0-2-4-5-7-4-5-2-------------|

A------------------------------------------|

E------------------------------------------|



e------------------------------------------|

B------------------------------------------|

G------------------------------------------|

D--0-2-4-5-7-9-----------------------------|

A--------------5--7-5----------------------|

E---------------------5-3------------------|





SOL MIm

No, esta noche amor no he pensado en ti

DO

abrí los ojos para ver entorno a mi

RE

y entorno a mi giraba el mundo como siempre



SOL MIm

Gira el mundo gira en el espacio infinito

DO

con amores que comienzan

con amores que se han ido

RE

con la penas y alegrías de la gente como yo.





SOL MIm

El mundo, llorando ahora yo te busco

DO

https://www.coveralia.com/acordes/el-mundo-efecto-mariposa.php
en el silencio yo me pierdo

RE

y no soy nada al verte a ti.

SOL MIm

El mundo, no se ha parado ni un momento

DO

su noche muere y llega el día

RE SOL

y ese día vendrá.



SOL …

Yo, que aún pensaba que eras algo especial

después la vida me ha enseñado mucho más

y entorno a ti no gira todo como siempre.



Gira el mundo gira en el espacio infinito

con amores que comienzan

con amores que se han ido

con la penas y alegrías de la gente como yo.



El mundo, llorando ahora yo te busco

en el silencio yo me pierdo

y no soy nada al verte a ti.

El mundo, no se ha parado ni un momento

su noche muere y llega el día

y ese día vendrá.



El mundo, llorando ahora yo te busco

en el silencio yo me pierdo

y no soy nada al verte a ti.

El mundo, no se ha parado ni un momento

su noche muere y llega el día

y ese día vendrá.

Letra subida por: Anónimo

Discos en los que aparece este acorde: Metamorfosis 2 , Vivo En Vivo

El acorde de El Mundo de Efecto Mariposa es una versión de la canción original realizada por colaboradores/usuarios de Coveralia.

¿Has encontrado algún error en esta página? Envíanos tu corrección del acorde