música
Buscador

Acorde de El Mar De Sangre - Pier

Letra de El Mar De Sangre

Intro:



riff: esto va sobre el riff en

A5 algunas partes de la cancion:

E|--------------| |-------------------------|

B|--------------| |-------------------------|

G|--------------| |-------------------------| X4

D|--------------| |-------------------------|

A|--------------| |--------------10-10-12-12|

E|-555555555555-| |--12-12-10-10------------|



F G A



riff

Las polleras condimentan la derrota

tan ingenuas con la gracia del amor



F5 G5 A5

Toca fondo la pereza del maldito picaflor



riff

La lave al paraíso brilla por su ausencia

divanes acaramelados abrazan su soledad.



F5 G5 A5

A la luz del mar de sangre, resignado por el hambre



riff

Va luchando con patente de potente

saltarín y escurridizo el mimado capitán



F5 G5 A5

Cómo va desenfrenado el torito malcriado



C5 G5

Su cara desfigurada lava con paciencia

D5 A5

A la luz del mar de sangre nace su conciencia

A5 G5

Su cara desfigurada lava con paciencia

D5 A5

A la luz del mar de sangre nace su conciencia



riff fill 1

https://www.coveralia.com/acordes/el-mar-de-sangre-pier.php

El talento y el mar de sangre lo cuestionarán

riff fill 2

sus locuras inmaduras no razonarán



F5 fill 3

Sabe todo, sabe nada

G5 fill 4

y se queda sin carnada





Su cara desfigurada lava con paciencia

A la luz del mar de sangre nace su conciencia

Su cara desfigurada lava con paciencia

A la luz del mar de sangre nace su conciencia



solo:



E|-12-10---10---------------------12-10---10-------------------------------------------|

B|-------13---13-10---10-13-10--13------13---13-10---10-13-10----10-13-10---10-13-10-10|

G|------------------12---------9------------------12----------12----------12-----------|

D|-------------------------------------------------------------------------------------|

A|-------------------------------------------------------------------------------------|

E|-------------------------------------------------------------------------------------|



E|------------------------10------------------------------------------------------------|

B|-------10-13-13----10-12-------10-10-------------10-10-------------10-10-10-13-10---10|

G|-10-12----------12---------9-12------9-9-9-9-9-12------9-9-9-9-9-12---------------12--|

D|--------------------------------------------------------------------------------------|

A|--------------------------------------------------------------------------------------|

E| -------------------------------------------------------------------------------------|



riff



fin.



fill 1: Fill 2: Fill 3: Fill 4



E|--------10-12| E|-12-13-10------15-12 E|------------| E|----------|

B|---10-13-----| B|----------12-------- B|-13-12-10---| B|-----13-13|

G|-12----------| G|-------------12----- G|----------12| G|-9-12-----|







Letra subida por: Anónimo

El acorde de El Mar De Sangre de Pier es una versión de la canción original realizada por colaboradores/usuarios de Coveralia.

¿Has encontrado algún error en esta página? Envíanos tu corrección del acorde