música
Buscador

Acorde de El Manual - Conchita

Letra de El Manual

Riff1

E||--------------------------|--------------------------|
B||--10----------------10----|--------------11----------|
G||--------10----------------|--10----------------10----|
D||--------------10----------|--------10----------------|
A||--------------------------|--------------------------|
E||--------------------------|--------------------------|

--------------------------|--------------------------|
--------13----------------|--11----------------10----|
--------------10----------|--------10----------------|
--10----------------10----|--------------10----------|
--------------------------|--------------------------|
--------------------------|--------------------------|


--------------------------|--------------------------|
--------------10----------|--------10----------------|
--10----------------10----|--------------10----------|
--------10----------------|--10----------------10----|
--------------------------|--------------------------|

-------------||
-------------||
-------------||
--10---------||
-------------||
-------------||


Riff1 hasta los acordes
Si te digo que te quiero, que no puedo, que me muero, que te espero,

tngo miedo pero siempre estaré ahí, tú m dices que t agobias que no puedes

que no quieres que prefieres que me valla por ahí.

Si te digo que no puedo que me canso de quererte de no tener nada a cambio

y que ayer me enamore, tú me dices que me quieres que me esperas

y que mueres si me marcho y que me quede de una vez

      REm                                  LAm
Yo tratando de buscar el equilibrio entre no quererte y quererte sin ser
      REm                                  LAm
yo tratando de disimular mis penas callando un te quiero de cada tres

       SOLm                      DOm
Y me canse de jugar a no quererte si te quiero
     SOLm                             Dolm
Me canse de decirte que estoy bien aunque no puedo
     SOLm                          DOm
Me canse si me quieres ven y si no pues me muero
          RE
pero no vayas a buscarme una vez que yo ya este bien

      SOL
Si te digo que te quiero, que no puedo que me muero
      RE
que te espero tengo miedo pero siempre estaré ahí
      SOL
tu me dices que te agobias que no puedes que no quieres
      RE
que prefieres que me valla por ahí
      SOL
Si te cuentan que me vieron en mitad de la Gran Vía
     RE
besando la boca de alguien y que parecía feliz
      SOL
Tú me llamas y me dices que me esperas que me quieres
        RE
y que mueres si me marcho


      DO                                   RE
Yo tratando de buscar el equilibrio entre no quererte y quererte sin ser
      DO                                RE
yo tratando de disimular mis penas callando un te quiero de cada tres

        LAm                    RE
Y me canse de jugar a no quererte si te quiero
        LAm                        RE
Me canse de decirte que estoy bien aunque no puedo
       LAm                         RE
Me canse si me quieres ven y si no pues me muero
        LA
pero no vayas a buscarme una vez que yo ya este bien

        LAm                         RE
Me canse de decirte que estoy bien aunque no puedo

      LAm                         RE
Me canse

       LAm                          RE
Me canse si me quieres ven y si no pues me muero
        LA
pero no vayas a buscarme una vez que yo ya este bien

       LAm                RE
Y me canseeeee

       LAm                RE
Y me canseeeee




Letra subida por: Anónimo

Discos en los que aparece este acorde: 4000 Palabras

El acorde de El Manual de Conchita es una versión de la canción original realizada por colaboradores/usuarios de Coveralia.

¿Has encontrado algún error en esta página? Envíanos tu corrección del acorde