música
Buscador

Acorde de El Fantasma - Arbol

Letra de El Fantasma





G D/F#

salgo volando por la ventana

Em C

y tantos dias quedan atras

G D/F#

ya no me duelen todas las cosas

Em C

que ayer me podian molestar



son cajones que se cierran para que nadie los vea

son palabras que no puedo decir

pero ya no me importa porque nada me toca

y no hay nada vivo dentro de mi



floto en el aire desde esta tarde

cuando mi cabeza exploto

ahora el piso es de nubes y me asomo cada tanto

a espiarte desde donde estoy



G D/F# Em C

y veo... y vuelo...

G D/F# Em C

y veo... y vuelo...



el barrio se ilumina y la noche se hace dia

brilla como un arbol de navidad

y estoy alto muy alto y las luces de los autos

que se frenan cada tanto y vuelven a arrancar



y veo, a la gente corriendo

como una coreografia sin fin

y huelo como en una avioneta

el olor a fugazeta que cocina mama



y me acuerdo de aquel dia en que decias

si pudieras ser un pajaro, que harias?



https://www.coveralia.com/acordes/el-fantasma-arbol.php

B|-3-0-1-3----1-0-1---0-1-----------------------------------1--0-1-3--1-3-4--3-1-0--1-0-----|

G|------------------2--------4-2-4-0-2-4--0-2-4--0-2-4--2-4-----------------------------2-0-|



ahora que floto y no siento lo que toco

y la gente no me ve pasar

voy a aprovechar para ir a buscarte

y contarte como es todo por aca



algunas mañanas pasa la abuela Yolanda

y nos vamos juntos a pasear

y te manda saludos el marido de Pocha

que me juega al ajedrez y no le puedo ganar



y dale para adelante con el pibe de a la vuelta

que a la tarde te paso a visitar

yo te sigo esperando porque nada me apura

y algun dia todos vienen para aca



y veo... y vuelo...

y veo... y vuelo...



e|-----------------------------------------------------------------1----1-3--1--------------|

B|-6-3-4-6----4-3-4---3-4----3-1-3---1-3----1-3----1-3--1-3-4--3-4----4--------4-3--4-3-----|

G|------------------5--------------3------3------3--------------------------------------5-3-|



Bb F/A Gm Eb

y veo (y veo) y vuelo (y vuelo)

Bb F/A Gm Eb

y lloro (y lloro) un poco (un poco)



B|-------------8-6-------8-6---8-6---8-6--4-3-4-3-|

G|---------------------7-----7-----7--------------| x4

D|-8-8-8-8-8-8------------------------------------|



B|---6---6-----6---6-----4---4-----4---4/---6---6-----6---6-----4---4-----4---4-----|

G|----------------------------------------------------------------------------------|

D|-8---8---8-7---7---7-5---5---5-4---4/---8---8---8-7---7---7-5---5---5-4---4-------|



Letra subida por: Anónimo

Discos en los que aparece este acorde: Guau , Guau! + Miau! , Miau! (Dvd)

El acorde de El Fantasma de Arbol es una versión de la canción original realizada por colaboradores/usuarios de Coveralia.

¿Has encontrado algún error en esta página? Envíanos tu corrección del acorde