música
Buscador

Acorde de El Amar No Es Querer - Antonio Orozco

Letra de El Amar No Es Querer

E------------------------------------------

B------------------------------------------

G----------7(x9)---------6(x9)----------

D-0(x2)----------0(x2)------------------

A------------------------------------------

E------------------------------------------



D A

Clemencia a un vuelo

D A

del amar al querer,

D A

barrera invisible que salto

D G A

como un preso las paredes en sueños.

D A D A

Se me pierde la vista en tu cuerpo

D G A G

y la encuentro de nuevo entre besos.

G Bm A

Hablame y me perderé

G A

del amar al querer,

G Bm A

bésame y me perderé

G A

que el amar no es querer.



E------------------------------------------

B------------------------------------------

G----------7(x9)---------6(x9)----------

D-0(x2)----------0(x2)------------------

A------------------------------------------

E------------------------------------------



D A D A

Una vez intenté escribir al querer

D G A

y de casas, coches y fiestas canté.

D A D A

Mirandote lo volvi a hacer

https://www.coveralia.com/acordes/el-amar-no-es-querer-antonio-orozco.php

D G A

y de besos, abrazos y amores canté.

G Bm A

Amame y me perderé

G A

del amar al querer,

G Bm A

bésame y me perderé



G A

que el amar no es querer.

G Bm A

Hablame y me perderé

G A

del amar al querer,

G Bm A

bésame y me perderé

G A

que el amar no es querer.

D A D A

Puedes querer pero pisa bien

D G A

que el amar no es querer y te puedes perder.

G Bm A

Amame y me perderé

G A

del amar al querer,

G Bm A

bésame y me perderé

G A

que el amar no es querer.

G Bm A

Hablame y me perderé

G A

del amar al querer,

G Bm A

bésame y me perderé

G A

que el amar no es querer.

Letra subida por: Anónimo

Discos en los que aparece este acorde: Semilla Del Silencio , Semilla Del Silencio (Edicion Especial)

El acorde de El Amar No Es Querer de Antonio Orozco es una versión de la canción original realizada por colaboradores/usuarios de Coveralia.

¿Has encontrado algún error en esta página? Envíanos tu corrección del acorde