música
Buscador

Acorde de Duality - Slipknot

Letra de Duality

E|---------------------------------------------------- 

B|----------------------------------------------------

G|----------------------------------------------------

D|----------------------------------------------------

A|---2222222222222222555555558833333333---------------



I push my fingers into my

eyes.... it's the only thing that slowly

stops the ache, but it's made of all the

thing i have to





B5 D5

TAKE!!! Jesus it never ends

F5 C5 B5

to push its way inside

D5 F5 C5

If the pain goes on AHHHHHH!!!!



DISTORÇÃO ABAFADA - 2X



E|--------------------------------------|

B|--------------------------------------|

G|-4-4-4---2-4---4-4-4---4-4-2-4---4b---|

D|-4-4-4---2-4---4-4-4---4-4-2-4--------|

A|-2-2-2---0-2---2-2-2---2-2-0-2--------|

D|--------------------------------------|

H (harmonic)

E|--------------------------------------|

B|--------------------------------------|

G|-4-4-4---2-4---4-4-4---4-4-2-4--------|

D|-4-4-4---2-4---4-4-4---4-4-2-4----4b--|

A|-2-2-2---0-2---2-2-2---2-2-0-2--------|

D|--------------------------------------|

H (harmonic)



E|----------------------------------------------------

B|----------------------------------------------------

G|----------------------------------------------------

D|----------------------------------------------------

A|9999-12-12-12-12-7777-9999-5555-7777-2222-----------

D|----------------------------------------------------



VERSO 1

I've screamed until my base collapse

I've waited as my times elapse

Now all i do is little so much fate

I've wished for this, i've bitched with that

I've left behind this little fact

You cannot kill what u did not create

I've gotta say what i've gotta say

And when i swell, I'll go away

but I cant promise you'll enjoy the night

I guess i'll save the best for last

My creature seems like one big past

You'll laugh at me, cuz you left me no choice



C5

I PUSH MY FINGERS INTO MY!!!!!



B5 D5 F5 C5

EYES...its the only thing that slowly

B5 D5

stops the ache, if the pain goes on,

F5 C5

I'M NOT GONNA MAKE IT!



Break - C5 B5 D5 B5



E|----------------------------------------------------

B|----------------------------------------------------

G|----------------------------------------------------

D|----------------------------------------------------

A|9999-12-12-12-12-7777-9999-5555-7777-2222-----------

D|----------------------------------------------------



VERSO 2

Put me back together ,or separate the skin

from bone, we are the peices, and

you cant leave me alone, tell me the

reality its better than the dream

but i found out the hard way

NOTHING IS WHAT IT SEEMS!!!!!



C5

I PUSH MY FINGERS INTO MY!!!!!



B5 D5 F5 C5

EYES...its the only thing that slowly

https://www.coveralia.com/acordes/duality-slipknot.php

B5 D5

stops the ache, but its made of all the

F5 C5 B5 D5

things i have to TAKE...jesus it never

F5 C5 B5

ends, to push its way inside

D5 F5 C5

if the pain goes on, I'M NOT GONNA MAKE IT!



Surtando..

E|--------------------------------------|

B|--------------------------------------|

G|-4-4-4---2-4---4-4-4---4-4-2-4---4b---|

D|-4-4-4---2-4---4-4-4---4-4-2-4--------|

A|-2-2-2---0-2---2-2-2---2-2-0-2--------|

D|--------------------------------------|

H (harmonic)

E|--------------------------------------|

B|--------------------------------------|

G|-4-4-4---2-4---4-4-4---4-4-2-4--------|

D|-4-4-4---2-4---4-4-4---4-4-2-4----4b--|

A|-2-2-2---0-2---2-2-2---2-2-0-2--------|

D|--------------------------------------|

H (harmonic)



B5

all i've got

D5 F5

all i've got is insane

B5

all i've got

D5 A5

all i've got is insane



C5

ALL I'VE GOT

D5 F5

ALL I'VE GOT IS INSANE

C5

ALL I'VE GOT

D5 A5

ALL I'VE GOT IS INSANE



C5



E|----------------------------------------------------

B|----------------------------------------------------

G|----------------------------------------------------

D|----------------------------------------------------

A|3-5-3-2-0h2-3-5-3-2-0h2-----------------------------

D|----------------------------------------------------



I PUSH MY FINGERS INTO MY!!!!!



B5 D5 F5 C5

EYES...its the only thing that slowly

B5 D5

stops the ache, but its made of all the

F5 C5 B5 D5

things i have to TAKE...jesus it never

F5 C5 B5

ends, to push its way inside

D5 F5 C5

if the pain goes on, I'M NOT GONNA MAKE IT!



atenção para a mudança na 2ª Batida!

B5 D5 F5

B5 D5 A5*



* começa a ficar lento!



B5

all i've got

D5 F5

all i've got is insane

B5

all i've got

D5 A5

all i've got is insane



C5

ALL I'VE GOT

D5 F5

ALL I'VE GOT IS INSANE

C5

ALL I'VE GOT

D5 A5

ALL I'VE GOT IS INSANE

Letra subida por: Anónimo

El acorde de Duality de Slipknot es una versión de la canción original realizada por colaboradores/usuarios de Coveralia.

¿Has encontrado algún error en esta página? Envíanos tu corrección del acorde