música
Buscador

Acorde de Drive - Funeral For A Friend

Letra de Drive

|------------------------------------------------| 

|-6------7----6------7------9------7---9------7--|

|----6-----------6-------------6----------6------|

|------------------------------------------------|

|------------------------------------------------|

|------------------------------------------------|



BASE:Bb G# C# + RIFF1

And I wish it was sweeter

The taste of your mouth

Because right now, it hurts too much to be

Closer than this

And with one hard look

I can tell

That you've had enough of these useless sunsets



|------------------------------------------------------|

|------------------------------------------------------|

|-----3--------------3-------6-----6-----6-----6-------|

|-4h6----6-4-4---4h6---6-4-----4-4---4-4---4-4---4-4---|

|------------------------------------------------------|

|------------------------------------------------------|

riff2 {CHORUS}

Base: D# C# Bm

This could be a movie

And this could be our final act

We don't need these happy endings

This could be a movie

And this could be our final act

We don't need these happy endings



BASE(Bb G# C#) + RIFF1

So tell your father that

That you're mine

And I'll swear we'll run away

And I'll make a plan and save

Everyone from themselves

And put them in the ground

And put them in the ground



{CHORUS}



|---14----------------14------|

|------12-----12---------12---|

|---------11------------------|



|-----------------------------|

(Bm C# Bb F# Bb)

Sitting in the car

With the radio

https://www.coveralia.com/acordes/drive-funeral-for-a-friend.php

Turned to static

Feeling quite tragic

And with one strategic blow

And you find yourself

Back in the hold

That you used to sit so comfortably in



|---------------------------------------------------------

|-7h9-9---7---7h9-9---7----12-11-9-7-7-7---12-11-9-7-7-7--

|---------------------------------------------------------

|---------------------------------------------------------

|---------------------------------------------------------

|---------------------------------------------------------

(*Apenas o RIFF ACIMA)

Sitting in the car

With the radio

Turned to static

Feeling quite tragic

And with one strategic blow

And you find yourself

Back in the hold

That you used to sit so comfortably in



{Chorus}



|---14----------------14------|

|------12-----12---------12---|

|---------11------------------|



|-----------------------------|

(Bm C# Bb F# Bb)

Sitting in the car

With the radio

Turned to static

Feeling quite tragic

And with one strategic blow

And you find yourself

Back in the hold

That you used to sit so comfortably in



( Bb OU D#)

Sitting in the car

With the radio

Turned to static

Feeling quite tragic

And with one strategic blow

And you find yourself

Back in the hold

That you used to sit so comfortably in

Letra subida por: Anónimo

Discos en los que aparece este acorde: Hours

El acorde de Drive de Funeral For A Friend es una versión de la canción original realizada por colaboradores/usuarios de Coveralia.

¿Has encontrado algún error en esta página? Envíanos tu corrección del acorde