música
Buscador

Acorde de Dreamtime - Daryl Hall



CHORDS and SPECIAL VOICINGS



E-A-D-G-B-e

C/B x-2-x-0-1-0

Am/G 3-x-2-2-1-0

C/E 0-3-2-0-1-0

F/A x-0-3-2-1-1

Bb/D x-x-0-3-3-1



D/C# x-4-x-2-3-2

Bm/A x-0-4-4-3-2

D/F# 2-x-0-2-3-2



---------------------------------------------------------------------------



INTRO / CHORUS riff



e|----------------|----------------|----------------|----------------|

B|----------------|----------------|----------------|----------------|

G|----------------|----------------|----------------|----------------|

D|----------------|----------------|----------------|0---------------|

A|3-------2-------|----------------|----------------|----------0-1-2-|

E|----------------|5------3--------|1-------0-------|--0-1-2-3-------|



e|----------------|----------------|----------------|----------------|

B|----------------|----------------|----------------|----------------|

G|----------------|----------------|----------------|----------------|

D|----------------|----------------|----------------|0---------------|2

A|3-------2-------|----------------|----------------|----------0-1-2-|

E|----------------|5-------3-------|1--------0------|--0-1-2-3-------|



LINK 1 (bridge-chorus)

e|----------------|

B|----------------|

G|----------------|

D|----------------|

A|----------------|3

E|0-1-0-1-2-3-2-3-|



e|----------------|----------------|

B|----------------|----------------|

G|----------------|----------------|

D|----------------|----------------|0

A|----------------|--------0-2-3-4-|

E|0-1-0-1-2-3-2-3-|4-5-4-5---------|



CODA chorus (key change)

e|----------------|----------------|----------------|----------------|

B|----------------|----------------|----------------|----------------|

G|----------------|----------------|----------------|----------------|

D|----------------|----------------|----------------|----------------|

A|5-------4-------|2------0--------|----------------|----------2-3-4-|

E|----------------|----------------|3-------2-------|0-2-3-4-5-------|



---------------------------------------------------------------------------



INTRO

| G# | % | % | % |

| C C/B | Am Am/G | F C/E | Dm G |

| C C/B | Am Am/G | F C/E | Dm G |



Am Em

I saw you standing and I felt your rage

Am Em

Like a dark cloud on a crowded stage

F G

You were talking thru the smoke in your fantasy

Dm G

I know you girl I know what to believe



Am Em

Maybe things ain't been so good at home

Am Em

And the people that you love never cared at all

F G

You wanna run away don't care where you go

Dm G

You wanna run away, run away that's all you know



Bb F/A

Believe it's alright to fantasize

G F

And say the words you think will satisfy me

https://www.coveralia.com/acordes/dreamtime-daryl-hall.php
Eb Bb/D

But you know better than that

Eb [LINK 1]

'Cause you know what's a lie



C C/B Am Am/G

You're living in Dreamtime Baby

F C/E Dm G

It's time to wake up

C C/B Am Am/G

You're living in Dreamtime Baby

F C/E Dm G

It's time to shape up



Am Em

In your dream it's overcast

Am Em

Rain comes down movin' your way fast

F G

You wanna run away don't care where you go

Dm G

You wanna run away, run away that's all you know



Am Em

Turn a corner then you see a door

Am Em

Walk on thru throw yourself on the floor

F G

When you're looking up it's no surprise

Dm G

Standing there is a man with Movie Star Eyes



Bb F/A

Think he's gonna take care of you

G F

The man with the plan that'll see you thru

Eb Bb/D

I say there ain't no way

Eb [LINK 1]

'Cause I know he's a lie



C C/B Am Am/G

You're living in Dreamtime Baby

F C/E Dm G

It's time to wake up

C C/B Am Am/G

You're living in Dreamtime Baby

F C/E Dm G

It's time to shape up



CHORUS with ad lib vocals:

| C C/B | Am Am/G | F C/E | Dm G |

| C C/B | Am Am/G | F C/E | Dm G |

| C C/B | Am Am/G | F C/E | Dm G |

| C C/B | Am Am/G | F C/E | Dm G |



SOLO

| Bb | F/A | G | F |

| Eb | Bb/D | Eb | N.C. | % |

[LINK 2]



D D/C# Bm Bm/A

You're living in Dreamtime Baby

G D/F# Em A

You wanna run away

D D/C# Bm Bm/A

You're living in Dreamtime Baby

G D/F# Em A

You wanna run away



CHORUS with ad lib vocals:

| D D/A | Bm Bm/A | G D/F# | Em A |



I never saw anybody fall apart so fast

Living in Dreamtime

You know it ain't gonna last

Never saw anybody think she's so right and be so wrong

Living in Dreamtime

It's hard to carry on ...



(repeat and fade)



Letra subida por: Anónimo

Discos en los que aparece este acorde: Three Hearts In The Happy Ending Machine

El acorde de Dreamtime de Daryl Hall es una versión de la canción original realizada por colaboradores/usuarios de Coveralia.

¿Has encontrado algún error en esta página? Envíanos tu corrección del acorde