música
Buscador

Acorde de Dosis De Heavy Metal - Obus

Letra de Dosis De Heavy Metal



1|-----------------------------------------------------------------|-----|

2|-----------------------------------------------------------------|--3--|

3|-----------------------------------------------------------------|--2--|

4|-7-----7-----7---8-----8-----8---9-----9-----9--10----10----10---|--0--|

5|-5-5-5-5-5-5-5-5-5-5-5-5-5-5-5-5-5-5-5-5-5-5-5-5-5-5-5-5-5-5-5-5-|-----|

6|---P-P---P-P---P---P-P---P-P---P---P-P---P-P---P---P-P---P-P---P-|-----|

M M M M M M M M M M M M M M M M M M M M



1|-------------------------------------------------------------------|

2|-------------------------------------------------------------------|

3|-------------------------------------------------------------------|

4|-7-----7-----7---8-----8-----8---9-----9-----9--10----10----10-----|

5|-5-5-5-5-5-5-5-5-5-5-5-5-5-5-5-5-5-5-5-5-5-5-5-5-5-5-5-5-5-5-5-5---|

6|---P-P---P-P---P---P-P---P-P---P---P-P---P-P---P---P-P---P-P---P---|

M M M M M M M M M M M M M M M M M M M M



El suelo se abre ante mis pies

Mi garganta grita me siento caer

Imágenes rudas cruzan ante mi

En unos momentos esto será el fin

1|-------------------------------------------------------------------|

2|-------------------------------------------------------------------|

3|-------------------------------------------------------------------|

4|-7-----7-----7---8-----8-----8---9-----9-----9--10----10----10-----|

5|-5-5-5-5-5-5-5-5-5-5-5-5-5-5-5-5-5-5-5-5-5-5-5-5-5-5-5-5-5-5-5-5---|

6|---P-P---P-P---P---P-P---P-P---P---P-P---P-P---P---P-P---P-P---P---|

M M M M M M M M M M M M M M M M M M M M



Quiero pedir un deseo: soy joven para morir

Concédeme solo un ruego, dame alas para volar

1|--------------------------------|

2|--------------------------------|

3|--------------------------------|

4|-----------5-4----------5-4-----|

5|-------3-4-----0----3-4-----0---|

6|---5-5------------5-------------|



El gran labio dice que el heavy murió

Pero hay grandes colas en el pabellón

Nos toman el pelo, no cantan ni wey

Extraños montajes te quieren vender

1|-------------------------------------------------------------------|

2|-------------------------------------------------------------------|

3|-------------------------------------------------------------------|

4|-7-----7-----7---8-----8-----8---9-----9-----9--10----10----10-----|

5|-5-5-5-5-5-5-5-5-5-5-5-5-5-5-5-5-5-5-5-5-5-5-5-5-5-5-5-5-5-5-5-5---|

6|---P-P---P-P---P---P-P---P-P---P---P-P---P-P---P---P-P---P-P---P---|

M M M M M M M M M M M M M M M M M M M M



No sigas las modas que dictan no te dejes convencer

Ni .... ni Roger han muerto

Su espíritu cabalga otra vez

1|--------------------------------|

2|--------------------------------|

3|--------------------------------|

4|-----------5-4----------5-4-----|

5|-------3-4-----0----3-4-----0---|

6|---5-5------------5-------------|



Si!... Heavy Metal!

1|-------------------------------------------------------------------|

2|-------------------------------------------------------------------|

3|-------------------------------------------------------------------|

4|-7-----7-----7---8-----8-----8---9-----9-----9--10----10----10-----|

5|-5-5-5-5-5-5-5-5-5-5-5-5-5-5-5-5-5-5-5-5-5-5-5-5-5-5-5-5-5-5-5-5---|

6|---P-P---P-P---P---P-P---P-P---P---P-P---P-P---P---P-P---P-P---P---|(X2)

M M M M M M M M M M M M M M M M M M M M





No olvides tomar tu dosis, tu dosis de heavy metal

Sube el volumen a tope, nunca te arrepentirás

1|-----------------------------------|

2|-----------------------------------|

3|-----------------------------------|

4|---5---4---2-------0-3-Op3p0---0---|

5|---3---2---0---0-3-----------3-----|

6|-----------------------------------|(X3)



1|-----------------------|

2|-------------------3---|

3|-------------------2---|

4|---5---4---2-------0---|

5|---3---2---0-----------|

6|-----------------------|



1|-------------------------------------------------------------------|

2|-------------------------------------------------------------------|

3|-------------------------------------------------------------------|

4|-7-----7-----7---8-----8-----8---9-----9-----9--10----10----10-----|

5|-5-5-5-5-5-5-5-5-5-5-5-5-5-5-5-5-5-5-5-5-5-5-5-5-5-5-5-5-5-5-5-5---|

6|---P-P---P-P---P---P-P---P-P---P---P-P---P-P---P---P-P---P-P---P---|(X2)

M M M M M M M M M M M M M M M M M M M M



-------------------------------------------------10------------------|

-----8-10-8p10p8----------------10-------------10----10-13-10-13-10v-|

-9-10-----------10-9-10---10-12---12---12p10p12----------------------|

---------------------------------------------------------------------|

---------------------------------------------------------------------|

---------------------------------------------------------------------|



-----------------------------------------------------------------------|

------8-10-8--------13-15-13p15p13----13------------15v-----13---------|

-9-10---------12-14----------------14---14-12v----14-----14---14-12-14-|

-----------------------------------------------------------------------|

-----------------------------------------------------------------------|

-----------------------------------------------------------------------|



1|-----------------------------------|

2|-----------------------------------|

3|-----------------------------------|

4|---5---4---2-------0-3-Op3p0---0---|

5|---3---2---0---0-3-----------3-----|

6|-----------------------------------|(X3)

https://www.coveralia.com/acordes/dosis-de-heavy-metal-obus.php



------------------------13-15-16v-16v-16v---15p13-16v-16v-16v---|

-15/17-17v-17v-15p13p15-----------------------------------------|

----------------------------------------------------------------|

----------------------------------------------------------------|

----------------------------------------------------------------|

----------------------------------------------------------------|



1|-------------------------------------|

2|------15-13--------------------------|

3|---14------14-12-14-12p14p12---12v---|

4|-----------------------------15------|

5|-------------------------------------|

6|-------------------------------------|



1|---------------------|-------------------------|

2|---------------------|-------------------------|

3|---------------------|-------------------------|

4|---5---4---2---------|---4-4-4---5-5-5---6-6---|

5|---3---2---0---------|---2-2-2---3-3-3---4-4---|

6|---------------------|-------------------------|



Mi ultimo ruego quizás solo tu

Impidas que al fondo nos quieran echar

Corre la voz, pinta en la pared

Los Rockeros duros vuelven otra vez

1|-------------------------------------------------------------------|

2|-------------------------------------------------------------------|

3|-------------------------------------------------------------------|

4|-7-----7-----7---8-----8-----8---9-----9-----9--10----10----10-----|

5|-5-5-5-5-5-5-5-5-5-5-5-5-5-5-5-5-5-5-5-5-5-5-5-5-5-5-5-5-5-5-5-5---|

6|---P-P---P-P---P---P-P---P-P---P---P-P---P-P---P---P-P---P-P---P---|

M M M M M M M M M M M M M M M M M M M M



Se que te gusta la marcha

A ti no te van a engañar

Pasa de discjockey bobos

Despierta a toda la ciudad

1|--------------------------------|

2|--------------------------------|

3|--------------------------------|

4|-----------5-4----------5-4-----|

5|-------3-4-----0----3-4-----0---|

6|---5-5------------5-------------|



Si!... Heavy Metal!

1|-------------------------------------------------------------------|

2|-------------------------------------------------------------------|

3|-------------------------------------------------------------------|

4|-7-----7-----7---8-----8-----8---9-----9-----9--10----10----10-----|

5|-5-5-5-5-5-5-5-5-5-5-5-5-5-5-5-5-5-5-5-5-5-5-5-5-5-5-5-5-5-5-5-5---|

6|---P-P---P-P---P---P-P---P-P---P---P-P---P-P---P---P-P---P-P---P---|(X2)

M M M M M M M M M M M M M M M M M M M M



No olvides tomar tu dosis, tu dosis de heavy metal

Sube el volumen a tope, nunca te arrepentirás

1|-----------------------------------|

2|-----------------------------------|

3|-----------------------------------|

4|---5---4---2-------0-3-Op3p0---0---|

5|---3---2---0---0-3-----------3-----|

6|-----------------------------------|(X3)



1|---------------------|-------|

2|---------------------|---3---|

3|---------------------|---2---|

4|---5---4---2---------|---0---|

5|---3---2---0---------|-------|

6|---------------------|-------| El 2º solo es parecido al 1º(improvisa)



1|-------------------------------------------------------------------|

2|-------------------------------------------------------------------|

3|-------------------------------------------------------------------|

4|-7-----7-----7---8-----8-----8---9-----9-----9--10----10----10-----|

5|-5-5-5-5-5-5-5-5-5-5-5-5-5-5-5-5-5-5-5-5-5-5-5-5-5-5-5-5-5-5-5-5---|

6|---P-P---P-P---P---P-P---P-P---P---P-P---P-P---P---P-P---P-P---P---|(X2)

M M M M M M M M M M M M M M M M M M M M



1|-----------------------------------|

2|-----------------------------------|

3|-----------------------------------|

4|---5---4---2-------0-3-Op3p0---0---|

5|---3---2---0---0-3-----------3-----|

6|-----------------------------------|(X4)



1|-------------------------|

2|-------------------------|

3|-------------------------|

4|---4-4-4---5-5-5---6-6---|

5|---2-2-2---3-3-3---4-4---|

6|-------------------------|



1|--------------------------------|

2|--------------------------------|

3|--------------------------------|

4|-----------5-4----------5-4-----|

5|-------3-4-----0----3-4-----0---|

6|---5-5------------5-------------|(X4)



-------------------------------------------------------------------------|

-------------------------------------------------------------------------|

-------------------------------------------------------------------------|

-4-4-4--5-5-5--6-6--7-7-7--9-9-9--10-10--11-11-11--13-13-13--14-14--12/0-|

-2-2-2--3-3-3--4-4--5-5-5--7-7-7---8—-8---9—9—-9---11-11-11--12-12--12/0-|

-------------------------------------------------------------------------|



1|-----------|

2|---3-3-3---|

3|---2-2-2---|

4|---0-0-0---|

5|-----------|

6|-----------|

Letra subida por: Anónimo

Discos en los que aparece este acorde: Preparate , Vamos Muy Bien: 30 Grandes Impactos

El acorde de Dosis De Heavy Metal de Obus es una versión de la canción original realizada por colaboradores/usuarios de Coveralia.

¿Has encontrado algún error en esta página? Envíanos tu corrección del acorde