música
Buscador

Acorde de Donde Quedaran - Christian Daniel



INTRO…

          G              Em              C         D     G
E---------------------------------------------------------------|
A---------------------------------------------------------------|
D---------------------------------------------------------------|
G----------7-------------12---------------5--5---5/7------7-----|
B---------8----8-10-12-12--------------8--5---5--5/7------8-----|
e----7H8H7------------------------7H8H7---3----3-3/5-5----7-----|


  G
Quien se sentara
      Em
En la silla de mi comedor
   C
Cuando ya no este a tu lado
   D
Compartiendo el mismo tenedor

    Em
Quien recorrerá tu espalda
    C
Y te descubra como un mapa
  D
Quien caminara el pasillo
       G                          G
Cuando entres sola en la madrugada

  Em
Quien te quitara la ropa
  C
Y secara tu cuerpo gota a gota
  D
Esa puerta que se cierra
   C
Quien tendrá la llave
            D  D4 D
Y quien la abrirá


 G
El pasado nunca vuelve
      C                      D
Solo nos queda en la vida olvidar
  G
Como se me ocurre amarte
    C                        D
Como te atreves volverme a dejar

 G
El pasado nunca vuelve
     C                       D
Solo nos queda en la vida olvidar
  G
Como se me ocurre amarte
   C                         D     E
Como te atreves volverme a dejar
E7                                      Am
  Cuanto pagaría por tu rostro en ese espejo
D7             G
  Volver a mirar


          G              Em              C         D     G
E---------------------------------------------------------------|
A---------------------------------------------------------------|
D---------------------------------------------------------------|
G----------7-------------12---------------5--5---5/7------7-----|
B---------8----8-10-12-12--------------8--5---5--5/7------8-----|
e----7H8H7------------------------7H8H7---3----3-3/5-5----7-----|



 G
Como acostumbrarme
  Em
A mirarte sin poder tocarte
 C
Como mentirle a mis ojos
    D
Si no he dejado de pensarte

  Em
Quien recorrerá tu espalda
  C
Y te descubra como un mapa
  D
Quien caminara el pasillo
   G                        G
Cuando entres sola en la madrugada

  Em
Quien te quitara la ropa
  C
Y secara tu cuerpo gota a gota
  D
Esa puerta que se cierra
    C
Quien tendrá la llave
           D  D4  D
Y quien la abrirá


G
El pasado nunca vuelve
      C                      D
Solo nos queda en la vida olvidar
  G
Como se me ocurre amarte
    C                        D
Como te atreves volverme a dejar

 G
El pasado nunca vuelve
     C                       D
Solo nos queda en la vida olvidar
  G
Como se me ocurre amarte
   C                         D     E
Como te atreves volverme a dejar
E7                                     Am
  Cuanto pagaría por tu rostro en ese espejo
D7             G
  Volver a mirar
          G              Em              C         D        G
E--------------------------------------------------------------------|
A--------------------------------------------------------------------|
D--------------------------------------------------------------------|
G----------7-------------12---------------5--5---5/7---7----4---(4)--|
B---------8----8-10-12-12--------------8--5---5--5/7----7----3--(3)--|
e----7H8H7------------------------7H8H7---3----3-3/5-5---5----3-(3)--|

Hasta la siguiente vez…


Letra subida por: Anónimo

Discos en los que aparece este acorde: Christian Daniel , Donde Quedaran (Cd Single)

El acorde de Donde Quedaran de Christian Daniel es una versión de la canción original realizada por colaboradores/usuarios de Coveralia.

¿Has encontrado algún error en esta página? Envíanos tu corrección del acorde