música
Buscador

Acorde de Don't Go Off Wandering - Limp Bizkit

Letra de Don't Go Off Wandering

Tuning:C#



Intro:

C5



E5 C5 E5 C5 D5

3-----------------9--|--9---7---7---7---7---9---9---9---|

4--------9-----------|----------------------------------|

5---7----------------|----------------------------------|

6------------8-------|----------------------------------|



Every day it's nothing but stress to me

Constantly dwellin' on how you got the best of me

Wanna know somethin I can't believe

The way you keep testin' me

And mentally molesting me

Would you think any less of me

If I said that I'd be there

Would you think any less of me

If I said I really care

Of course you would

Cause you only want what you can't have

As for me I'm stuck with my dick in my hand



E5 Csus2 E5

Because you don't feel nothing at all

E5 Csus2 E5

You don't feel nothing at all



E5 C5 E5 C5 D5

3-----------------9--|--9---7---7---7---7---9---9---9---|

4--------9-----------|----------------------------------|

5---7----------------|----------------------------------|

6------------8-------|----------------------------------|



Maybe there's more to life than it seems

Constantly running from reality chasing dreams

Wanna know somethin' I can't believe

Just how much misery comes with humility



https://www.coveralia.com/acordes/don-t-go-off-wandering-limp-bizkit.php

E Bb5 E Bb5

Do you think any less of me now that I'm gone

Look at me now

Everything is gone

I can't seem to do anything right

But I figured out why you don't let me inside



E5 Csus2 E5

Because you don't feel nothing at all

E5 Csus2 E5

You don't feel nothing at all



C5



Bridge

E5 (descendo)



You need nothing from me now

So you think I'm useless to you now

But I need one thing from you now

I insist that you feel me now



E5 D#5 G5 F#5 x2

E5 G5 E5

G5



E5 C5 E5 C5 D5

3-----------------9--|--9---7---7---7---7---9---9---9---|

4--------9-----------|----------------------------------|

5---7----------------|----------------------------------|

6------------8-------|----------------------------------|

You said, you said, you needed, you said

You don't feel nothing at all

You don't feel nothing at all





C5





Letra subida por: Anónimo

Discos en los que aparece este acorde: Significant Other

El acorde de Don't Go Off Wandering de Limp Bizkit es una versión de la canción original realizada por colaboradores/usuarios de Coveralia.

¿Has encontrado algún error en esta página? Envíanos tu corrección del acorde