música
Buscador

Acorde de Disco Medley Part I: I Will Survive/Funktown - Bso Selena

Am





At first I was afraid





Dm





I was petrified





G





I kept thinking I could never live





C





Without you by my side





F





But then I spent so many nights











Just thinking how you did me wrong





E4





I grew stronger





E7





I learned how to get along.











Am





And so you're back





Dm





from outer space.





G





I just walked in to find you here.





C





Without that look upon your face.





F





I should have change that stupied lock











I should have made you leave your key





E4





If I had known for just one second





E7





You'd be back to brother me.











Am





Oh now go





Dm





Walk out the door.





G





Just turn around now.





C





You're not welcome anymore.





F B°





Weren't you the one who tried to break me with desire?





E4





Did you think I'd crumble?





E7





Did you think I'd lay down and die?











Am





Oh not I.





Dm





I will survive.Am





At first I was afraid





Dm





I was petrified





G





I kept thinking I could never live





C





Without you by my side





F





But then I spent so many nights











Just thinking how you did me wrong





E4





I grew stronger





E7





I learned how to get along.











Am





And so you're back





Dm





from outer space.





G





I just walked in to find you here.





C





Without that look upon your face.





F





I should have change that stupied lock











I should have made you leave your key





E4





If I had known for just one second





E7





You'd be back to brother me.











Am





Oh now go





Dm





Walk out the door.





G





Just turn around now.





C

https://www.coveralia.com/acordes/disco-medley-part-i--i-will-survive-funktown-bso-selena.php





You're not welcome anymore.





F B°





Weren't you the one who tried to break me with desire?





E4





Did you think I'd crumble?





E7





Did you think I'd lay down and die?











Am





Oh not I.





Dm





I will survive.

















e|---------------------------------------------------------------------------|





B|---------------------------------------------6-5---------------------6-5---|





G|-------------------------------5-5-3-5-----5-----5-----5-5-3-5-----5-----5-|





D|---------------------------------------5-5---------------------5-5---------|





A|---------------------------------------------------------------------------|





E|---------------------------------------------------------------------------|

















e|---------------------------------------------------------------------------|





B|---------------------------------------------------------------------6-5---|





G|-------------------------------------------------------5-5-3-5-----5-----5-|





D|---------------------------------------------------------------5-5---------|





A|---------------------------------------------------------------------------|





E|---------------------------------------------------------------------------|





Gotta make a move to a town that's right for me.

















e|---------------------------------------------------------------------------|





B|---------------------------------------------------------------------6-5---|





G|-------------------------------------------------------5-5-3-5-----5-----5-|





D|---------------------------------------------------------------5-5---------|





A|---------------------------------------------------------------------------|





E|---------------------------------------------------------------------------|









Town to keep me movin', keep me groovin' with some energy.

















e|---------------------------------------------------------------------------|





B|---------------------------------------------------------------------------|





G|---------------------------------------------------------------------5-4---|





D|-------------------------------------------------------5-5-3-5-----5-----5-|





A|---------------------------------------------------------------5-5---------|





E|---------------------------------------------------------------------------|





Well, (I talk about it) (x 4).

















e|---------------------------------------------------------------------------|





B|---------------------------------------------------------------------6-5---|





G|-------------------------------------------------------5-5-3-5-----5-----5-|





D|---------------------------------------------------------------5-5---------|





A|---------------------------------------------------------------------------|





E|---------------------------------------------------------------------------|





Talk about, talk about, talk about, movin'.

















e|-------------------------------------------------|





B|----------------------6-5------------------------|





G|--------5-5-3-5-----5-----5----------------------|





D|----------------5-5------------------------------|





A|-------------------------------------------------|





E|-------------------------------------------------|





Gotta move on.

















e|-------------------------------------------------|





B|----------------------6-5------------------------|





G|--------5-5-3-5-----5-----5----------------------|





D|----------------5-5------------------------------|





A|-------------------------------------------------|





E|-------------------------------------------------|





Gotta move on.

















e|-------------------------------------------------|





B|----------------------6-5------------------------|





G|--------5-5-3-5-----5-----5----------------------|





D|----------------5-5------------------------------|





A|-------------------------------------------------|





E|-------------------------------------------------|





Gotta move on.











e|-------------------------------------------------|





B|-------------------------------------------------|





G|-------------------------------------------------|





D|-------------------------------------------------|





A|-------------------------------------------------|





E|-------------------------------------------------|





(Bass run.)



Discos en los que aparece este acorde: Bso Selena

El acorde de Disco Medley Part I: I Will Survive/Funktown de Bso Selena es una versión de la canción original realizada por colaboradores/usuarios de Coveralia.

¿Has encontrado algún error en esta página? Envíanos tu corrección del acorde