música
Buscador

Acorde de Dilema - Lori Meyers

Letra de Dilema



Acordes utilizados:



Em G A D Bb F#m Dmaj7 Gm

e|--0--3--0--2--1---2---2----3---|

B|--0--3--2--3--1---2---2----3---|

G|--0--0--2--2--3---2---2----3---|

D|--2--0--2--0--3---4---0----5---|

A|--2--2--0--X--1---4---X----5---|

E|--0--3--0--X--1---2---X----3---|





intro:



e|---------------------------------| e|--2---2-----3-2-------|

B|---------------------------------| B|--3-----3-------------|

G|---------------------------6~~---| G|--2-------2-----------|

D|---2-2-2---5-5-5---7-7-7---------| D|--0-------------------|

A|---2-2-2---5-5-5---7-7-7---------| A|----------------------|

E|---0-0-0---3-3-3---5-5-5---------| x2 E|----------------------|





Em G A D Dmaj7

Y, si hago algo nuevo que me guste a mí, me dices que no

Em G A D

Es un dilema que a la hora de salir me culpes a mí



Bb Gm D

Mientras tanto oigo voces

Bb Gm D

que me inducen hacia ti

Bb Gm D F#m Em A

Pienso en que al volver a verte soy feliz



https://www.coveralia.com/acordes/dilema-lori-meyers.php

Em G A D Dmaj7

Espero que alguien no te exija alguna vez como lo hice yo

Em G A D

Si me regañas o me riñes otra vez me pides perdón



Em D

Y, si nuestro rumbo cambia, es por que tenía que cambiar

Em D

Y, si nuestro mundo acaba, es por que tenía ese final



Em G A D Dmaj7

Y si hago algo nuevo que me guste a mí, me dices que no

Em G A D

Es un dilema que a la hora de salir me culpes a mí



Bb Gm D

Mientras tanto piensas algo

Bb Gm D F#m Em A

Mientras tanto piensas algo, en mi...



Em D

Y, si nuestro rumbo cambia, es por que tenía que cambiar

Em D

Y, si nuestro mundo acaba, es por que tenía ese final



solo e instrumental:



Em G A D

D A (muted) x2



Em G A x8 D-Dsus4-D.

aaaahhhh...

Letra subida por: Anónimo

Discos en los que aparece este acorde: Hostal Pimodan

El acorde de Dilema de Lori Meyers es una versión de la canción original realizada por colaboradores/usuarios de Coveralia.

¿Has encontrado algún error en esta página? Envíanos tu corrección del acorde