música
Buscador

Acorde de Dile Al Amor - Aventura

Letra de Dile Al Amor

 Intro: 

(2x)

e-------------------------------------------

B-------------------------------------------

G---------------------2--2-0----------------

D----2-2-2---4-5-4-2-----------5-4-4-2-2-0--

A-3-----------------------------------------

E-------------------------------------------



(2x)

e-3-2-3-2-3-2-3-2-3-2-3-2-3-2-3-2-------10--

B---------------------------------3---8-----

G-------------------------------------------

D-------------------------------------------

A-------------------------------------------

E-------------------------------------------





G Em

cupido no te entiendo al hablar de este ejemplo

C D

de juntar corazones un experto en conexion

G Em

te fallaron las flechas y de tantas violetas

C D

que por ti he regalado en mi jardin no hay ni una flor







C D

pues dile al amor que no toque mi puerta

G D Em

que yo no estoy en casa que no vuelva mañana

C D

a mi corazon ya le ha fallado en ocaciones

G D Em

me fui de vacaciones lejos de los amores

C D

dile al amor que no es grato mi vida

G D Em

dale mis despedidas juntale las razones



ocultar esta pestaña (2x)

e-3-2-3-2-3-2-3-2-3-2-3-2-3-2-3-2-------10--

B---------------------------------3---8-----

G-------------------------------------------

D-------------------------------------------

A-------------------------------------------

E-------------------------------------------





G Em

cupido no entiendo si la suerte me odia

C

y me ha dado la herencia en la

D

fortuna del desamor



G Em

y te pido disculpa pero no aciertas una

C D

y me dejas al lado aunque no sea tu intencion







C D

pues dile al amor que no toque mi puerta

G D Em

que yo no estoy en casa que no vuelva mañana

C D

a mi corazon ya le ha fallado en ocaciones

G D Em

me fui de vacaciones lejos de los amores

C D

dile al amor que no es grato mi vida

G D Em

dale mis despedidas juntale las razones



yes sir



ocultar esta pestaña (2x)

https://www.coveralia.com/acordes/dile-al-amor-aventura.php

e---------------------------------------

B-----------------------------------4-3-

G-0h3-3-3-3-3-3-3--3h5-3-3-2-3-5-5------

D---------------------------------------

A---------------------------------------

E---------------------------------------



le gusta mi bachata amiguita



(2x)

e---------------------------------------

B-----------------------------------4-3-

G-0h3-3-3-3-3-3-3--3h5-3-3-2-3-5-5------

D---------------------------------------

A---------------------------------------

E---------------------------------------





D# F

quiero fechas en mi calendario

Dm

visitas en mi horario

Gm

si se trata de amor

D# F

no me interesa oir mas canciones

Dm

no quiero ver flores

Gm

si nose trata de amor

D# F

pongo a dieta los sentimientos

Dm Gm

evitando los momentos de desilucion



CUPIDO







C D

pues dile al amor que no toque mi puerta

G D Em

que yo no estoy en casa que no vuelva mañana

C D

a mi corazon ya le ha fallado en ocaciones

G D Em

me fui de vacaciones lejos de los amores

C D

dile al amor que no es grato mi vida

G D Em

dale mis despedidas juntale las razones



Ok.... Aveenturaa...

(este Se Hace una Vez)

e-3-2-3-2-3-2-3-2-3-2-3-2-3-2-3-2-------10--

B---------------------------------3---8-----

G-------------------------------------------

D-------------------------------------------

A-------------------------------------------

E-------------------------------------------





(Luego Empieze De Nuevo, pero acompañando letra)

(3x)

e-3-2-3-2-3-2-3-2-3-2-3-2-3-2-3-2-------10--

B---------------------------------3---8-----

G-------------------------------------------

D-------------------------------------------

A-------------------------------------------

E-------------------------------------------



i Don't need no love in my life

i Don't need no love in my life

i Don't need no love in my life



(Esta Ultima Se Hace Asi)



C G

i Don't need no love

Letra subida por: Anónimo

El acorde de Dile Al Amor de Aventura es una versión de la canción original realizada por colaboradores/usuarios de Coveralia.

¿Has encontrado algún error en esta página? Envíanos tu corrección del acorde