música
Buscador

Acorde de Dig A Pony - The Beatles

Letra de Dig A Pony

Intro: 2x

G D A

e ------------------------------------------------------------------

B ------------------------------------------------------------------

G --------------------------4-7-4---------------------2-------------

D ----------2-5-2------4-7----------------------2h3h4---4-2------2--

A -----2-5----------5---------------0-0-0--3-4---------------3h4----

E --3---------------------------------------------------------------



A

e --5--5----5--5----5--5----5------

B --2--2h3--2--2h3--2--2h3--2------

G --2--2----2--2----2--2----2------

D --2--2h4--2--2h4--2--2h4--2------

A --0--0----0--0----0--0----0------

E ---------------------------------



A F#m

I... I hi hi, I hi hi... dig a pony

Bm G7

Well you can celebrate any thing you want... yes

Bm G7 E7

You can celebrate any thing you want ohhh...





A F#m

I... I hi hi, I hi hi... do a roadhog

Bm G7

Well you can penetrate any place you go... yes

Bm G7

you can penetrate any place you go

E7

I told you so





G D riff 1

All I want is you

G D A

Everything has got to be the way you want it to... because...



riff 1:

A

G --------------------2--------------

D --------------2h3h4---4-2------2---

A --0-0-0--3-4---------------3h4-----

E -----------------------------------



A F#m

I... I hi hi, I hi hi... pick a moondog

Bm G7

Well you can radiate every thing you are yes...

Bm G7 E7

Yes you can radiate every thing you are ohhh now...



https://www.coveralia.com/acordes/dig-a-pony-the-beatles.php



A F#m

I... I hi hi, I hi hi... wrote a story

Bm G7

Well ou can imitate everyone you know yes...

Bm G7

you can imitate everyone you know

E7

I told you so





G D riff 1

All I want is you

G D A

Everything has got to be the way you want it to... because...



(solo)



A F#m

I... I hi hi, I hi hi... fell the wind blow

Bm G7

Well you can indicate everything you see yes...

Bm G7 E7

You can indicate anything you see ohh now...





A F#m

I... I hi hi, I hi hi... wrote a lorry

Bm G7

Well you can syndicate any boat you row yeah...

Bm G7

You can syndicate any boat you row

E7

I told you so





G D riff 1

All I want is you

G D A

Everything has got to be the way you want it to... because...





riff de encerramento: 2x

G D A

e ------------------------------------------------------------------

B ------------------------------------------------------------------

G --------------------------4-7-4---------------------2-------------

D ----------2-5-2------4-7----------------------2h3h4---4-2------2--

A -----2-5----------5---------------0-0-0--3-4---------------3h4----

E --3---------------------------------------------------------------





Letra subida por: Anónimo

Discos en los que aparece este acorde: Let It Be Naked , Anthology 3 , Let It Be

El acorde de Dig A Pony de The Beatles es una versión de la canción original realizada por colaboradores/usuarios de Coveralia.

¿Has encontrado algún error en esta página? Envíanos tu corrección del acorde