música
Buscador

Acorde de Destierro - No Te Va Gustar

Letra de Destierro

Riff:



E/--------------------------------------------------11h7

B/------------------------------------------------------

G/------------------------------------------------------

D/------------------------------------------------------

A/-----------0-------2222-0-3-5-2------0-2-3------------

E/--33-3-2-0---3-2-0--------------0--3-------3-2-0------





Em Am D Em

Esa salida, ese final

Am D Em

es la mentira que hace dudar.

Am D Em

es el destierro, el propio infierno,

Am D Em

de quien debiera dedicarse a jugar.



Tal vez un día quiera volver,

pero esta ciego, no puede ver.

que cruzó el cerco, ya no es su cuerpo,

y su cabeza no entiende.



G Dm G

Que ya no hay tinta, que no hay papel,

G Am

gritos, caricias, que le hagan ver,

G Dm Em

que mamá esta preocupada.



E/----------------------------------------11h7

B/--------------------------------------------

G/--------------------------------------------

D/--------------------------------------------

A/-----------0-------------0-2-3--------------

https://www.coveralia.com/acordes/destierro-no-te-va-gustar.php

E/--33-3-2-0---3-2-0--0--3-------3-2-0--------





¿Donde esta tu buen corazón?



E/--------------

B/--------------

G/--------------

D/--------------

A/--222-5-4-3-2-

E/--------------





¿Donde esta tu sueño campeón?



E/--------------

B/--------------

G/--------------

D/--------------

A/--222-5-4-3-2-

E/--------------



¿Quién te conviertió en un sicario?,

ni la gente del barrio te conoce la voz.



Sos la salida, sos el final,

sos la mentira que hace dudar.

sos el destierro, el propio infierno,

y su cabeza no entiende.



Que ya no hay tinta, que no hay papel,

gritos, caricias, que le hagan ver.

que mamá esta preocupada,

mamá esta preocupada,

que mamá esta preocupada por él.

Letra subida por: Anónimo

Discos en los que aparece este acorde: El Calor Del Pleno Invierno , Ntvg En Vivo Buenos Aires

El acorde de Destierro de No Te Va Gustar es una versión de la canción original realizada por colaboradores/usuarios de Coveralia.

¿Has encontrado algún error en esta página? Envíanos tu corrección del acorde