música
Buscador

Acorde de Desterrado - Tierra Santa

Letra de Desterrado





---------12-------------------13h15-13-12-------------12|

13-13-15----15-13-12-13-13-15-------------15-13-13-15---|

14-------------------15---------------------------------|

--------------------------------------------------------|

--------------------------------------------------------|

--------------------------------------------------------|

|x2

----------13-------12-13-12----------12--------12-13-17-|

-15-13-12----13-15----------15-13-15-----13-15----------|

--------------------------------------------------------|

--------------------------------------------------------|

--------------------------------------------------------|

--------------------------------------------------------|



Em Am F

Moran recuerdos en ti de una tierra perdida

Em Am F

Donde os juntabais a oír canciones prohibidas

Em G Am C

Juras que pronto has de volver a ver

Am G F

Aquellos días de gloria

Em G Am C

Donde los tuyos volverán a ser

Am G F

Dueños de su propia historia



Am C Em Am

Y por los siglos sus voces se oirán

Am C Em Am

Entre lagos y montes se irá

Am C Em F

La verdad de los pueblos de Irlanda

F Em

De los pueblos de Irlanda



Em Am F

En tu camino hallarás sonrisa y tristeza

Em Am F

En tu camino verás a lo lejos tu tierra

Em G Am C

Si es que el destino lo ha querido así

Am G F

No te atormentes por nada

Em G Am C

Busca la luz que te guíe hasta allí

Am G F

Y pon la fe en tu mirada





Am C Em Am

Y por los siglos sus voces se oirán

Am C Em Am

Entre lagos y montes se irá

Am C Em F

La verdad de los pueblos de Irlanda

F Em

De los pueblos de Irlanda





-----------------------------------------------------------

---10-8-10-------------10-8--------10-8-10---------8-------

-7---------10-9-10-7-9------10-9-7---------10-9-10---10-9--

-----------------------------------------------------------

-----------------------------------------------------------

-----------------------------------------------------------



-----------------------------------------------------------

-----------10-8-10-------------10-8--------10-8-10---------

----9----7---------10-9-10-7-9------10-9-7---------10-9-10-

-10---10---------------------------------------------------

-----------------------------------------------------------

-----------------------------------------------------------



-----------------------------------------------------------

-8---------------------------------------------------------

---10-9----9-----------7-9----9-10-9-7--------------7-9----

--------10---10---7-10-----10----------10-9----7-10-----10-

--------------------------------------------10-------------

-----------------------------------------------------------





-----------------------------------------------------------

------8----------------------------------------------------

-9-10---10-10p9-----------7-9----9-10-9-7--------------7-9-

https://www.coveralia.com/acordes/desterrado-tierra-santa.php

----------------10-9-7-10-----10----------10-9----7-10-----

-----------------------------------------------10----------

-----------------------------------------------------------



-----------------------------------------------------------

---------8-------------------------------------------------

----9-10---10-10p9-----------------------------------------

-10----------------10-9------------------------------------

-----------------------------------------------------------

-----------------------------------------------------------



-----------------------------------------------------------

---10-8-10-------------10-8--------10-8-10---------8-------

-7---------10-9-10-7-9------10-9-7---------10-9-10---10-9--

-----------------------------------------------------------

-----------------------------------------------------------

-----------------------------------------------------------



-----------------------------------------------------------

-----------10-8-10-------------10-8--------10-8-10---------

----9----7---------10-9-10-7-9------10-9-7---------10-9-10-

-10---10---------------------------------------------------

-----------------------------------------------------------

-----------------------------------------------------------



-----------------------------------------------------------

-8---------------------------------------------------------

---10-9----9-----------------------------------------------

--------10---10--------------------------------------------

-----------------------------------------------------------

-----------------------------------------------------------



Em Am G

Dónde el invasor ha borrado la huella

C F Am G

Del hombre que vivió y murió en libertad

Em Am G

Cerca de su hogar defendió su pobreza

C Am

Y gritó, por piedad



Dm C Dm

Pero el invasor sin escrúpulos mató

Dm C Dm

Dispuesto a conquistar otro pueblo, otra nación

Dm C Dm

Queriendo gobernar e imponer su condición

F Dm C Dm

Pero han de llegar de nuevo ellos a Irlanda a gobernar



-----------------------------------------------------------

---10-8-10-------------10-8--------10-8-10---------8-------

-7---------10-9-10-7-9------10-9-7---------10-9-10---10-9--

-----------------------------------------------------------

-----------------------------------------------------------

-----------------------------------------------------------



-----------------------------------------------------------

-----------10-8-10-------------10-8--------10-8-10---------

----9----7---------10-9-10-7-9------10-9-7---------10-9-10-

-10---10---------------------------------------------------

-----------------------------------------------------------

-----------------------------------------------------------



-----------------------------------------------------------

-8---------------------------------------------------------

---10-9----9-----------7-9----9-10-9-7--------------7-9----

--------10---10---7-10-----10----------10-9----7-10-----10-

--------------------------------------------10-------------

-----------------------------------------------------------





-----------------------------------------------------------

------8----------------------------------------------------

-9-10---10-10p9-----------7-9----9-10-9-7--------------7-9-

----------------10-9-7-10-----10----------10-9----7-10-----

-----------------------------------------------10----------

-----------------------------------------------------------



-----------------------------------------------------------

---------8-------------------------------------------------

----9-10---10-10p9-----------------------------------------

-10----------------10-9------------------------------------

-----------------------------------------------------------

-----------------------------------------------------------

Letra subida por: Anónimo

Discos en los que aparece este acorde: Medieval

El acorde de Desterrado de Tierra Santa es una versión de la canción original realizada por colaboradores/usuarios de Coveralia.

¿Has encontrado algún error en esta página? Envíanos tu corrección del acorde