música
Buscador

Acorde de Desde Aquí - Loquero

 E |---------------------------------------------------------------------------- 

B |----------------------------------------------------------------------------

G |----------------------------------------------------------------------------

D |---------2-----2---------------2--------------------------------------------

A |---2-0-4---0-4---2-2-----2-0-4------2-------------2-------------2-----------

E |-4-------------------0-4--------0-4---4-2-0-2-0-4---4-2-0-2-0-4---4-2-0-2-0-





E B5 F#m A A5

Estoy muy deprimido man, al cavo que ni me querrás escuchar.



E B5 F#m A A5

parecíamos tal para cual, dos tipos lejanos,



E B5 F#m A A5

transando recetarios, buscando la liberación final,



E B5 F#m A A5 E

hermosos días lejanos, extraño desengaño en realidad.





E |----------------------------------------------------------------------------

B |----------------------------------------------------------------------------

G |----------------------------------------------------------------------------

D |---------2-----2---------------2--------------------------------------------

A |---2-0-4---0-4---2-2-----2-0-4------2-------------2-------------2-----------

E |-4-------------------0-4--------0-4---4-2-0-2-0-4---4-2-0-2-0-4---4-2-0-2-0-

https://www.coveralia.com/acordes/desde-aqui-loquero.php




E B5 F#m A A5 E

buscando un estallido estabamos, tan locos que las voces eran ladridos



B5 F#m A A5 E B5

y los genios no se aburren, no no no, me dicen al oido dos chicos escondidos



F#m A A5 E B5 F#m A

en este mundo cruel estábamos perdidos, viejo y cansado amigo mio los dos





F#m A E B5

y sigo buscando la pared donde gritabas



F#m A B5

ya no me emociono con nada...





E |----------------------------------------------------------------------------

B |----------------------------------------------------------------------------

G |----------------------------------------------------------------------------

D |---------2-----2---------------2--------------------------------------------

A |---2-0-4---0-4---2-2-----2-0-4------2-------------2-------------2-----------

E |-4-------------------0-4--------0-4---4-2-0-2-0-4---4-2-0-2-0-4---4-2-0-2-0-

Letra subida por: Anónimo

Discos en los que aparece este acorde: Fantasy , Electroshow (Disco 2) , Electroshow (Dvd)

El acorde de Desde Aquí de Loquero es una versión de la canción original realizada por colaboradores/usuarios de Coveralia.

¿Has encontrado algún error en esta página? Envíanos tu corrección del acorde