música
Buscador

Acorde de Denise - Fountains Of Wayne

Letra de Denise



Verse 1:



Bflat F+ F#+ F#+



I know this girl named Denise



Bflat F+ F#+ F#+



She makes me weak at the knees



Bflat F+ F#+ F#+



She drives a lavender Lexus



Bflat F+ F#+ F#+



She lives is Queens but her dad lives in Texas



Bridge:



F# C# Eflat



Sha-la-la-la-la-la-la, When she holds me



F# C# Eflat



Sha-la-la-la-la-la-la, I can't help myself



F# C# Eflat



Sha-la-la-la-la-la-la, Won't you tell me?



F+ F#+



Do you love me Denise? Whoa-ah!



F+ F#+



Do you love me Denise?



Chorus:



C#



Oh baby, tell me please, (do-ya, do-ya, ah-oh, do-ya do-ya )



Aflat



Ah-oh, do-ya, do-ya, Ah-oh, do-ya, do-ya



Bflat F#



Oh baby, tell me please, (do-ya, do-ya, ah-oh, do-ya do-ya )



Main Riff 2X:



Bflat F+ F#+ F#+



I heard she used to be married



Bflat F+ F#+ F#+



She listens to Puff Daddy



Bflat F+ F#+ F#+



She works at Liberty Travel



Bflat F+ F#+ F#+

https://www.coveralia.com/acordes/denise-fountains-of-wayne.php



She gotta heart made of gravel



Bridge: #2



F# C# Eflat



Sha-la-la-la-la-la-la, She controls me



F# C# Eflat



Sha-la-la-la-la-la-la, She can't help herself



F# C# Eflat



Sha-la-la-la-la-la-la, Won't you tell me?



F+ F#+



Do you love me Denise? Whoa-ah!



F+ F#+



Do you love me Denise?



Chorus: X2







Lead:







E ----------------------------------



A-----------------------------------



D----------8--6--8-------8---6---- X3



G-----8b-------------6-------------



B-----8b----------------------------



E------------------------------------







E ---------------------------------------------------------------------------------------------



A ----------------------------------------------------------------------------------9---------



D --6----------6---8---6---6-----------------------------6----/8---------------------



G -------10----------------------10---11----8----------------------------10------10-----



B ---------------------------------------------------------------------------------------------



E ---------------------------------------------------------------------------------------------











Chorus 2X



Main Riff







Letra subida por: Anónimo

Discos en los que aparece este acorde: Utopia Parkway

El acorde de Denise de Fountains Of Wayne es una versión de la canción original realizada por colaboradores/usuarios de Coveralia.

¿Has encontrado algún error en esta página? Envíanos tu corrección del acorde