música
Buscador

Acorde de Dead On The Floor - Alkaline Trio

Letra de Dead On The Floor



Power chords:

E5 (022xxx)

A5 (x022xx)

B5 (x244xx)

C#5 (x466xx)



Variations:

Emodal (079900)

Asus2 (x02200)

Bsus4 (x24400)

C#m7 (x46600)

-----------------------------------------------------------------------------

Intro Riff

(Rhythm guitar chords displayed above in the appropriate

places, although in the first riff, there is no rhythm guitar.)



E5 A5

D#|----------------------------------------------------------------------|

A#|----------------------------------------------------------------------|

F#|----------------------------------------------------------------------|

C#|----------------------------------------6---4---6---2---4---7---------|

G#|---11---9---11---7---9---6---7---7----0---0---0---0---0---0-----------|

D#|-0----0---0----0---0---0---0---0--------------------------------------|



E5 A5

D#|----------------------------------------------------------------------|

A#|----------------------------------------------------------------------|

F#|----------------------------------------------------------------------|

C#|----------------------------------------6---4---6---2---4---7---6---6-|

G#|---11---9---11---7---9---6---7---7----0---0---0---0---0---0---0---0---|

D#|-0----0---0----0---0---0---0---0--------------------------------------|



E5 A5 B5

D#|----------------------------------------------------------------------|

A#|----------------------------------------------------------------------|

F#|----------------------------------------------------------44444444----|

C#|----------------------------------------6---4---6---2-----44444444----|

G#|---11---9---11---7---9---6---7---7----0---0---0---0---0---22222222----|

D#|-0----0---0----0---0---0---0---0--------------------------------------|

-----------------------------------------------------------------------------



E5

Like two ships in the night we're colliding and sinking

A5 B5

Into the black sea of our love

E5

We navigated past the port of logical thinking

A5 B5

Lost sight of the stars up above



C#5

Now my heart is a mess

A5

Murder scene in my chest

E5 B5

Not a clue how you got through the door

E5

But I'm glad that you came

B5

No regret and no shame

A5 B5

As I'm lying here dead on the floor



-----------------------------------------------------------------------------

Interlude Riff



E5 A5

D#|----------------------------------------------------------------------|

A#|----------------------------------------------------------------------|

F#|----------------------------------------------------------------------|

C#|----------------------------------------6---4---6---2---4---7---6---6-|

G#|---11---9---11---7---9---6---7---7----0---0---0---0---0---0---0---0---|

D#|-0----0---0----0---0---0---0---0--------------------------------------|



E5 A5 B5

D#|----------------------------------------------------------------------|

A#|----------------------------------------------------------------------|

F#|----------------------------------------------------------44444444----|

C#|----------------------------------------6---4---6---2-----44444444----|

G#|---11---9---11---7---9---6---7---7----0---0---0---0---0---22222222----|

D#|-0----0---0----0---0---0---0---0--------------------------------------|



This is riff is played again later on, you'll see.

-----------------------------------------------------------------------------



E5

I took a blind leap of faith, it's not crashing and burning

A5 B5

With my heart fast asleep in your bed

E5

I got on the ground safe but with my insides turning

http://www.coveralia.com/acordes/dead-on-the-floor-alkaline-trio.php

A5 B5

And a picture of you in my head



C#5 A5

As I wandered away deep in shock and dismay

E5 B5

In a daze, just repeating your name

A5 B5

Well the fact of the matter is both our hearts shatter way too goddamn easily



E5 A5

When you asked me if I'd stay forever

B5 A5

Guess you meant just for the week

E5 A5

We felt so good together

B5 A5

It was way too good to be

C#5 A5

When I left you there early that morning my darling

E5 B5

I told you that I'd miss you so

A5 B5

I got on that plane with my heart soaring

E5

But now it's falling like snow



-----------------------------------------------------------------------------

Play interlude riff again.

-----------------------------------------------------------------------------



E5

Like two ships in the night we're colliding and sinking

A5 B5

Into the black sea of our love

E5

We navigated past the port of logical thinking

A5 B5

Lost sight of the stars up above



C#5

Now my heart is a mess

A5

Murder scene in my chest

E5 B5

Not a clue how you got through the door

E5

But I'm glad that you came

B5

No regret and no shame

A5 B5

As I'm lying here dead on the floor



E5 A5

When you asked me if I'd stay forever

B5 A5

Guess you meant just for the week

E5 A5

We felt so good together

B5 A5

It was way too good to be

C#5 A5

When I left you there early that morning my darling

E5 B5

I told you that I'd miss you so

A5 B5

I got on that plane with my heart soaring

E5 A5

But now it's falling like snow

B5 E5 A5

Now it's falling like snow

B5 E5 A5 B5 E5 A5

Now it's falling like snow

B5 E5

And now it's falling like snow



-----------------------------------------------------------------------------

Play this riff between every 'now it's falling like snow' line, with the

actual line of the song starting on each B5, Matt doesn't actually sing

the line after the second one, but the music is the same.



E5 A5 B5

D#|----------------------------------------------------------------------|

A#|----------------------------------------------------------------------|

F#|----------------------------------------------------------44444444----|

C#|----------------------------------------6---4---6---2-----44444444----|

G#|---11---9---11---7---9---6---7---7----0---0---0---0---0---22222222----|

D#|-0----0---0----0---0---0---0---0--------------------------------------|





Letra subida por: Anónimo

Discos en los que aparece este acorde: This Addiction

El acorde de Dead On The Floor de Alkaline Trio es una versión de la canción original realizada por colaboradores/usuarios de Coveralia.

¿Has encontrado algún error en esta página? Envíanos tu corrección del acorde