música
Buscador

Acorde de Dead On Arrival - Fall Out Boy

Letra de Dead On Arrival





A Am F G G# C Em

e|--5---5/0--1/1---3---4---3/0---0-------------------------------------------|

B|--5---5/1--1/1---3---4---5/1---0-------------------------------------------|

G|--6---5/2--2/2---4---5---5/0---0-------------------------------------------|

D|--7---7/2--3/3---5---6---5/2---2-------------------------------------------|

A|--7---7/0--0/3---5---6---3/3---2-------------------------------------------|

E|--5---5/0--x/1---3---4---3/0---0-------------------------------------------|



Intro

F 2x A 2x G 2x



Then

e|---------------|

B|---------------|

G|--0-4-5-4-0----|

D|---------------|

A|---------------|

E|---------------|

(Repeat Intro 3x)



C

i hope this is the last time

Em F Am

'cause i'd never say no to you

F F F G G C

this conversation's been dead on arrival

Em F Am

and there's no way to talk to you

F F F

this conversation's been dead on

G# Am F Am

a rivalry goes so deep between me

F G G

and this loss of sleep over you



Chorus

C G Am

this is side one

F Am G

flip me over

C G Am F Am G

i know i'm not your favorite record

C G Am F Am G

the songs you grow to like never stick at first

C G Am F

so i'm writing you a chorus

Am G

and here is your verse



Solo

e|---------------------------------------------------------------------------|

B|-----------------------33-55--------------------33-------------------------|

G|--55-44-55-44-55-44-55--------44-55-44-55-44-55----55----------------------|

D|---------------------------------------------------------------------------|

A|---------------------------------------------------------------------------|

E|---------------------------------------------------------------------------|



e|---------------------------------------------------------------------------|

B|--------------------33-55--------------------------------------------------|

G|--44-55-44-55-44-55--------44-55-44-55-44-55-------------------------------|

D|---------------------------------------------5~----------------------------|

A|---------------------------------------------------------------------------|

E|---------------------------------------------------------------------------|



e|---------------------------------------------------------------------------|

B|--55-33-55-33-55-33-55-66-55---33-55-33-55-33-55-66-55---------------------|

G|---------------------------------------------------------------------------|

D|---------------------------------------------------------------------------|

A|---------------------------------------------------------------------------|

https://www.coveralia.com/acordes/dead-on-arrival-fall-out-boy.php

E|---------------------------------------------------------------------------|



e|---------------------------------------------------------------------------|

B|--33-55-33-55-33-55-66--8--6--5~-------------------------------------------|

G|---------------------------------------------------------------------------|

D|---------------------------------------------------------------------------|

A|---------------------------------------------------------------------------|

E|---------------------------------------------------------------------------|

C

no, it's not the last time

Em F Am

'cause i'd never say no to you

F F F G G C

this conversation's still dead on arrival

Em F Am F

and there's no way to talk to you

F F

when you're dead on

G# Am F Am

a rivalry goes so deep between me

F G G

and this loss of sleep over you



Chorus

C G Am

this is side one

F Am G

flip me over

C G Am F Am G

i know i'm not your favorite record

C G Am F Am G

the songs you grow to like never stick at first

C G Am F

so i'm writing you a chorus

Am G

and here is your



Interlude

F 3x A 3x G 5x



C(Let Ring)

this is side one

C(Let Ring)

flip me over

Pluck E 6th holding down 2nd fret in bass like style

i know i'm not your favorite record

Now 4th fret

So-o-o-o





C C F 3x A 3x G 3x A 3x

this is side one

C C F 3x A 3x G 3x A 3x

flip me over



C G Am

this is side one

F Am G

flip me over

C G Am F Am G

i know i'm not your favorite record

C G Am F Am G

the songs you grow to like never stick at first

C G Am F

so i'm writing you a chorus

Am G C C

and here is your





Letra subida por: Anónimo

El acorde de Dead On Arrival de Fall Out Boy es una versión de la canción original realizada por colaboradores/usuarios de Coveralia.

¿Has encontrado algún error en esta página? Envíanos tu corrección del acorde