música
Buscador

Acorde de De Você - Pitty

Letra de De Você

Introdução: 



Riff 1

e-----------------------------------------------

b-----------------------------------------------

g-----------------------------------------------

D-----------------------------------------------

A------------------4----------------------------

E----2----2----------------4---5----4----5------





Riff 2

e-----------------------------------------------

b-----------------------------------------------

g-----------------------------------------------

D-----------------------------------------------

A------------------6----------------------------

E----4---4-----------6--7---6---7---------------





(Riff 1)

Esse vidro fechado

E a grade no portão

Suposta segurança

Mas não são proteção





(Riff 2)

E quando o caos chegar

A5 B5 C5

Nenhum muro vai te guardar

F#5

De você



(Riff 1)

Protótipo imperfeito

Tão cheio de rancor

É fácil dar defeito

É só lhe dar poder



(Riff 2)

https://www.coveralia.com/acordes/de-voce-pitty.php

E quando o caos chegar

A5 B5 C5

Nenhum muro vai te guardar

F#5

De você



(Riff 1)

Se tornam prisioneiros

Das posses ao redor

Olhando por entre as grades

O que a vida podia ser



(Riff 2)

Mas quando o caos chegar

A5 B5 C5

Nem um muro vai te guardar

F#5

De você





F#5 F#5 E5

E é com mão aberta

F#5 G5 A5

Que se tem cada vez mais

F#5 F#5 E5

A usura que te move

F#5 G5 A5

Só vai te puxar para trás



F#5 F#5 E5

E é com mão aberta

F#5 G5 A5

Que se tem cada vez mais

F#5 F#5 E5

A usura que te move

F#5 G5 A5 (G5 A5)

Vai te puxar para trás





Letra subida por: Anónimo

Discos en los que aparece este acorde: (Des) Concerto Ao Vivo (Dvd) , Anacronico

El acorde de De Você de Pitty es una versión de la canción original realizada por colaboradores/usuarios de Coveralia.

¿Has encontrado algún error en esta página? Envíanos tu corrección del acorde