música
Buscador

Acorde de Daze - Anouk

Letra de Daze



e-----------------------|----------------------|----------------------|

B--------0---------0----|-------0---------0----|-------0---------0----|

G-----3-----3----3----3-|----3-----3----3----3-|----3-----3----3----3-|

D--4-----------4--------|-4-----------4--------|-2-----------2--------|

A-----------------------|----------------------|----------------------|

E-----------------------|----------------------|----------------------|



e-----------------------| (2x)

B--------0---------0----|

G-----3-----3----3----3-|

D--2-----------2--------|

A-----------------------|

E-----------------------|



F# Emaj7

Day in day out keep it out of sight

F#

The things we do without a thought

Emaj7

It never has to end

F# Emaj7

Draw the blinds entertain yourself

F#

Cause there's no room for no one else

Emaj7

Just leave the world outside

F#

Now do we even care



F# F# E B Abm

We all just walk around in a daze

F# B C# F#

Not knowing what it's all about

F# F# E B Abm

Now baby, wouldn't it be great?

F# B C# F#

If we could turn it all around



e-----------------------|----------------------|----------------------|

B--------0---------0----|-------0---------0----|-------0---------0----|

G-----3-----3----3----3-|----3-----3----3----3-|----3-----3----3----3-|

D--4-----------4--------|-4-----------4--------|-2-----------2--------|

A-----------------------|----------------------|----------------------|

E-----------------------|----------------------|----------------------|



e-----------------------|

B--------0---------0----|

G-----3-----3----3----3-|

D--2-----------2--------|

A-----------------------|

E-----------------------|



Careless people, will remind you

We're loosing grip and need a shift

There's no easy way out

Some will tell you that there's nothing wrong

Just get on with what you want

It never has to end

Now do we even care







F# F# E B Abm

We all just walk around in a daze

F# B C# F#

Not knowing what it's all about

https://www.coveralia.com/acordes/daze-anouk.php
F# F# E B Abm

Now baby, wouldn't it be great?

F# B C# F#

If we could turn it all around



Ebm F#

One controls all that he sees

Abm B C#

Would you like to see me crawling

Ebm F#

One is what he wants to be

Abm B C# Ebm

But he feels he's only fallin' down

F#

One's in paradise

Abm B C# Ebm F# | Abm B C# |

One searches his way back home



Well I say

Ebm

One is cool



One is tired

Abm

One is smart



One is crying

B

One is dead



One is high

C# F#

Did I wake up in time



F# F# E B Abm

We all are lost inside the maze

F# B C# F#

We can't find our way home

F# F# E B Abm

Now baby, wouldn't it be great?

F# B C# F#

If we could turn it all around

E B Abm

All around, all around

F# B C# F#

Turn it all around

E B Abm F# B C#

All around, all around



F#



e-----------------------|----------------------|----------------------|

B--------0---------0----|-------0---------0----|-------0---------0----|

G-----3-----3----3----3-|----3-----3----3----3-|----3-----3----3----3-|

D--4-----------4--------|-4-----------4--------|-2-----------2--------|

A-----------------------|----------------------|----------------------|

E-----------------------|----------------------|----------------------|



e-----------------------| (2x)

B--------0---------0----|

G-----3-----3----3----3-|

D--2-----------2--------|

A-----------------------|

E-----------------------|



Letra subida por: Anónimo

Discos en los que aparece este acorde: Who's Your Momma

El acorde de Daze de Anouk es una versión de la canción original realizada por colaboradores/usuarios de Coveralia.

¿Has encontrado algún error en esta página? Envíanos tu corrección del acorde