música
Buscador

Acorde de Dame Una Alegría - La Mosca Tse-Tse

Letra de Dame Una Alegría

intro.



* E A

e---4----7---4--7--4--5---9--12-10-9----------------

B-5-------------------------------------------------



* E A

e---4----7---4--7--4--5------------------------------

B-5-------------------------------------------------



* E A

e---4----7---4--7--4--5---9--12-10-9----------------

B-5-------------------------------------------------



* E F#m

e---4----7---4--7--4--5--14-------------------------

B-5-------------------------------------------------





y dice...



E A

como me gusta quererte

E A

como me gusta estar bien

E A F#m

tocando para la gente el mundo se enciende

B

y me siento mejor



E A

bendita sea esta suerteee...

E A

nada nos hace cambiar

E A

con el barrio el barrio entre los dientes

F#m B

muy alta la frente vamosss a cantar...





coro.

A

Dame una alegria,

E

estoy esperando todos los dias

F#

dame un beso en la boca

B

https://www.coveralia.com/acordes/dame-una-alegria-la-mosca-tse-tse.php

que toda esta gente se ponga loca

A

La vida te da sorpresas

E

que lindas sorpresas nos dio la vida

F#

porque tengas o no tengas sabemos

B

no hay mal que por bien no venga



intro.



se repite lo mismo...





Por una vez en la vida no quiero

mas causas perdidas

por una vez en la vida

quiero ser feliz con vosssss...



repite coro...



solo. guitarra

E-A-A-B



CORO.

A

Dame una alegria,

E

estoy esperando todos los dias

F#

dame un beso en la boca

B

que toda esta gente se ponga loca

A

La vida te da sorpresas

E

que lindas sorpresas nos dio la vida

F#

porque tengas o no tengas sabemos

B

no hay mal que por bien no venga



INTRO.

E-A

E



Letra subida por: Anónimo

Discos en los que aparece este acorde: Biszzzzes , Biszzzzes (Dvd) , Biszzzzes (Dvd)

El acorde de Dame Una Alegría de La Mosca Tse-Tse es una versión de la canción original realizada por colaboradores/usuarios de Coveralia.

¿Has encontrado algún error en esta página? Envíanos tu corrección del acorde