música
Buscador

Acorde de Daffodil Lament - The Cranberries

Letra de Daffodil Lament

(part one)



(verse riff)

G |-------3-----|-------3-----|-------3-----|-------3-----|

D |-----5---5---|-----5---5---|-----3---3---|-----3---3---|

A |---5-------5-|---5-------5-|---5-------5-|---3-------3-|

E |-3-----------|-3-----------|-6-----------|-1-----------|



(measures in verse riff are occasionaly replaced by)

G |---------3-------|

D |-------5---5-----|

A |-----5-------3h5-|

E |-(_)-------------|



(chord progression) Gm Gm Bb F



(chorus riff)

D |-5-5-5-3-3-3-|-1-1-1-------|----------|-----|

A |-------------|-------5-5-5-|-3-3-3-5--|-(5)-|



(words)

https://www.coveralia.com/acordes/daffodil-lament-the-cranberries.php
Holding on

That's what i do since i met you

And it won't be long

Whould you notice if i left you

And in spite for some

Cause you're not the one

You're not the one

there



All night long

I laid on my pillow

These things are wrong

I can't sleep here



So lonely, so lonely



(intro e fillings)

E |---6---3--------------------

B |-3---3---3-6-3-4-6--4-3-----

El acorde de Daffodil Lament de The Cranberries es una versión de la canción original realizada por colaboradores/usuarios de Coveralia.

¿Has encontrado algún error en esta página? Envíanos tu corrección del acorde