música
Buscador

Acorde de Cuatro Cuervos - Arbol

Letra de Cuatro Cuervos

Riff1



Riff2

Wait`s a moment...



Riff3

Mira como bailan, corren!

Mira como ríen, lloran!

Mira como viven; muertos!



Riff4 x3

Mira como siguen vivos, sanos, solo, sordos...



Riff3

Nosotros también somos los negros del mundo.

Nosotros también somos los negros del mundo.

Nosotros también somos los negros del mundo.

F#5 B5 A5

Nosotros también somos los negros del mundo.



Riff2

Wait`s a moment...



Riff3

Mira sus sueños se van desilachando,

mira, despierta, se están quemando.

Mira despierta, te están matando;

te lo dije, te lo dije...



Riff4 x4

Wait`s a moment...



Riff5 (A)

Nosotros también somos los negros del mundo.

Riff5 (B)

Nosotros también somos los negros del mundo.

Riff5 (A)

Nosotros también somos los negros del mundo.

F#5

Nosotros también somos los negros del mundo.



Riff6 x2

Te quemaron, ey ey ey!

Te quemaron, fue!

Te quemaron, ey, ey, ey!

Te quemaron, fue!



(Silencio)

| Tira para arriba, tira para abajo,

| tirale la bomba que le da para el costado

| tira para arriba, tira para abajo,

|_ tirale la bomba que le da para los brazos



Riff4 x4

Wait`s a moment...



Riff5 (A)

Nosotros también somos los negros del mundo.

Riff5 (B)

Nosotros también somos los negros del mundo.

Riff5 (A)

Nosotros también somos los negros del mundo.

F#5

Nosotros también somos los negros del mundo.



Riff6 x2

Te quemaron, ey ey ey!

Te quemaron, fue!

Te quemaron, ey, ey, ey!

Te quemaron, fue!



Riff1

- Solo -



Riff5 (A)

Nosotros también somos los negros del mundo.

https://www.coveralia.com/acordes/cuatro-cuervos-arbol.php

Riff5 (B)

Nosotros también somos los negros del mundo.

Riff5 (A)

Nosotros también somos los negros del mundo.

F#5

Nosotros también somos los negros del mundo.



Riff6 x2

Te quemaron, ey ey ey!

Te quemaron, fue!

Te quemaron, ey, ey, ey!

Te quemaron, fue!



Riff6

Espera tranquilo, no digas nada.

Espera un momento, es solo eso.

Espera un momento, ya esta llegando.

No hables, no respires, prepara la garra.

Tatua en tu mente esta frase: wait`s a moment





Riff1

e|----------------------------------------------------------->

B|----------------------------------------------------------->

G|----------------------------------------2-4/2/4/2---------->

D|-4-4-2---2-4-------------2--4-4-2---2-4-4---------4--2/3/4->

A|-------4-------2-3-4-4-2-0--------4------------------------>

E|----------------------------------------------------------->



e|--------------------------------------------------||

B|--------------------------------------------------||

G|--------------------------------------------------||

D|-4-4-2---2-4----------------4-4-2---2-4-----------||

A|-------4-------2-3-4-4-2-0--------4---------------||

E|----------------------------------------0---------||



Riff2

e|-------------------------------------------------------------------||

B|-------------------------------------------------------------------||

G|------4-4--2-----------4-4--2-----------4-4--2--------4-4-4-2-4-2--||

D|------4-4--2----4--4---4-4--2----4--4---4-4--2----4-4-4-4-4-2-4-2--||

A|----------------4--4-------------4--4-------------4-4--------------||

E|-------------------------------------------------------------------||



Riff3

e|------------------------------------||

B|------------------------------------||

G|-------4--2--------4-----------4--2-||

D|-4--4--4--2--4--4--4-----4--4--4--2-||

A|-4--4--2--0--4--4--2-----4--4--2--0-||

E|-2--2--------2--2--------2--2-------||



Riff4

e|-------------------||

B|-------------------||

G|-------------------||

D|-4-4---4--4-2-4-2--||

A|-4-4---4--4-2-4-2--||

E|-2-2---------------||



Riff5 (A) Riff5 (B)e|-----------------------------|---------------------------------||

B|-----------------------------|---------------------------------||

G|-----------------------------|---------------------------------||

D|-----------------------------|---------------------------------||

A|-----4---4-----4-----2---0---|-------4---4-----4-----2---0-2-4-||

E|-2-2---2---2-2---2-2---2-----|-0-2-2---2---2-2---2-2---2-------||



Riff6

e|----------------------------------------------------------------------||

B|----------------------------------------------------------------------||

G|-----------------4-4-4-4-2-2-2-2-----------------4-4-4-4-4-4-4--2-----||

D|-4-4-4-2-4-4-4-2-4-4-4-4-2-2-2-2-4-4-4-2-4-4-4-2-4-4-4-4-4-4-4--2-----||

A|-4-4-4-2-4-4-4-2-2-2-2-2-0-0-0-0-4-4-4-2-4-4-4-2-2-2-2-2-2-2-2--0-----||

E|-2-2-2-2-2-2-2-2-----------------2-2-2-2-2-2-2-2----------------------||



Letra subida por: Anónimo

Discos en los que aparece este acorde: Arbol , Jardin Frenetico

El acorde de Cuatro Cuervos de Arbol es una versión de la canción original realizada por colaboradores/usuarios de Coveralia.

¿Has encontrado algún error en esta página? Envíanos tu corrección del acorde