música
Buscador

Acorde de Cualquier Cosa Bailaras - Alfredo Casero

Letra de Cualquier Cosa Bailaras

e: -9-12----8-8-11----9-12-6-7-8------9-9-10-10-12----5-7-5---9---5-7-7
B: --------------------------------------------------------------------
G: --------------------------------------------------------------------
D: --------------------------------------------------------------------
A: --------------------------------------------------------------------
E: -9-12----8-8-11----9-12-6-7-8------9-9-10-10-12----5-7-5---9---5-7-7

A            C#m    D           A
Dueña de mis ojos, dueña de mi ser.
D             A         B7    E
Puerto en que recalo es esa mujer,
A            C#m         D          A
me pinta, me tacha y me vuelve a pintar
D           A          E         A
se pasa la vida buscandome un lugar.

F#m [traste11] C#         D         A
Y se asusta un poco por mi alma gentil,
D             A          B7     E
gracias por quererme a pesar de mi,
F#m           C#      D         A
hago lo que puedo haciendote feliz,
D               A            E        A
el mundo es de hierro y tu sonrisa maiz.

F#m[t11]   C#       D [t7]  A
Faro calentito, alumbras mi mar,
D              A          B7        E
con todas mis olas no te puedo voltear.
F#m[t11]          C#m      D          A
No es facil, lo entiendo ponerse a volar
D            A         E        A
un avion sin alas es puro caretear.

[intro again]
e: -9-12----8-8-11----9-12-6-7-8------9-9-10-10-12----5-7-5---9---5-7-7
E: -9-12----8-8-11----9-12-6-7-8------9-9-10-10-12----5-7-5---9---5-7-7

  A         C#m    D          A
Dueña de mi ojos, dueña de mi ser,
  D           A        B7    E
dueña de mis huesos es esa mujer,
  A         C#m    D          A
prendo lucecitas y la hago volar,
  D           A             E       A
en mi avion sin alas que yo se manejar.

  F#m [t11]    C#     D [t7]   A
Cada uno en lo suyo debemos dejar
  D            A         B7     E
mucho espacio libre para carretear
F#m[t11]C#m       D[t7]    A
Amo tu arte y tu forma de amar,
D            A               D [slide]E-E-E-É-Ë-E   A            [ E - A ]
pero soy yo mismo, y no lo puedo (aunque quiero) evitar.           To-má.



Letra subida por: Anónimo

Discos en los que aparece este acorde: Casaerius , Casaerius (Dvd)

El acorde de Cualquier Cosa Bailaras de Alfredo Casero es una versión de la canción original realizada por colaboradores/usuarios de Coveralia.

¿Has encontrado algún error en esta página? Envíanos tu corrección del acorde