música
Buscador

Acorde de Cosas olvidadas Q - Bunbury

Letra de Cosas olvidadas Q

IMPORTANTE!!!! Cejilla en el primer traste



Intro:



E---9------8-------6-----4

B---11----9-------8-----6

G---10----x-------8-----5

D---x-----x--------x-----x

A---x-----x--------x----x

E---x-----x--------x-----x



E----8-----6-------4-----3-------------------4---3

B----9----8-------6-----5--------------------6---5

G----x----8-------6-----5-----5-3---3----6---5

D----x-----x------x-----x--------------------x---x

A----x-----x------x----x---------------------x--x

E----x-----x------x-----x--------------------x---x



MIm



1---3---4/8---3---4/6---4---3----4---1

---------------------------------------------2---1





Sol6: 3-3-2-x-x-x

RE9: x-4-3-4-0-4



LAm

Después de mucho, mucho tiempo

SI7 MIm

recién ahora vuelvo a hablarte

LAm FA

que sensación al escucharte

SI7 MIm

parece que fuera ayer.



LAm

ya vez estoy mucho mas viejo

SI7 MIm

y vos igual a aquellos días

LAm SOL#6 MIm

https://www.coveralia.com/acordes/cosas-olvidadas-q-bunbury.php

que tanto, tanto me querías

LAm SI7 MIm

ya nada queda , Todo se fue..



SOL# RE9 FA#m

Son cosas olvidadas

SI7 MI

Esos viejos amores

SOL#/RE9 FA#m

Y al evocar tiempos mejores

SI7 MI

Se van nublando nuestras miradas.



SOL# RE9 FA#m

Son cosas olvidadas

SI7 MI

Que vuelven desteñidas

LA LAm MI SOL#m

Y en la soledad de nuestras vidas

FA#m SI7 MIm

Abren heridas, al corazón.



LAm

Hay en tu voz un dejo triste

SI7 MIm

De penas y melancolía

LAm FA

Y a su conjuro el alma mía

SI7 MIm

Se esfuerza por no llorar



LAm

Es que a los dos nos hizo daño

SI7 MIm

Resucitar las horas muertas

LAm SOL#6

Y el corazón abrió sus puertas

LAm SI7 MIm

A la tristeza de recordar

Discos en los que aparece este acorde: Licenciado Cantinas

El acorde de Cosas olvidadas Q de Bunbury es una versión de la canción original realizada por colaboradores/usuarios de Coveralia.

¿Has encontrado algún error en esta página? Envíanos tu corrección del acorde