música
Buscador

Acorde de Conductores Suicidas - Joaquin Sabina

Letra de Conductores Suicidas



C F G

E------------------------------------------------------------------------------------------

B------------------------------------------------------------------------------------------

G----------------------------10-8~~-8-8-8-10-10-8~~--12-10~~-10-10-10~--12-12-10~~---------

D-10-8~~-8-8-8--10-10-8-~~---10-8~~-8-8-8-10-10-8~~--12-10~~-10-10-10~--12-12-10~~---------

A-10-8~~-8-8-8--10-10-8~~----8--8~~-8-8-8-10-10-8~~--10-10~~-10-10-10~--10-10-10~~---------

E-8--8~~-8-8-8--8--8--8~~-------------------------------------------------------------------



C7

No voy a negarte que has marcado estilo, que has patentado un modo de andar,

F7 C7

sin despeinarte por el agudísimo filo de la navaja de esta espidica ciudad...



G7 F7 C7

Sabias hacer turismo... al borde del abismo pero creo que de un tiempo a esta parte

F7

te has deslizado al lado marrón, tu que eras un maestro en el difícil arte

C7 G7 C7

de no mojarte bajo un chaparrón, buscando en la basura... un gramo de locura,

F7 C7

dime que es falso que ya nunca escribes, que has empeñado el reloj de raquel,

F7 C7

que tu corazón no halla quien lo motive, que has perdido siete quilos en un mes,



Bb F C

¿como te has dejado llevar a un callejón sin salida,

Bb F C

El mejor dotado de los conductores suicidas?

Bb F C

¿como te has dejado llevar a un callejón sin salida,

Bb F C7

El mejor dotado de los conductores suicidas?



C7

'no es asunto tuyo -me dirás- y punto', pero reconoce que es duro aceptar

F7 C7

que no hay ser humano que le eche una mano a quien no se quiere dejar ayudar.



G7 F7 C7

Y búscate la vida... en dirección prohibida, pero no impedirás que levante mi vaso

F7

a tu mala salud y te invite a brindar, muerta la amistad sabe igual que el fracaso,

C7 G7 C7

y a los dos nos gusta el verbo fracasar, así que tu ni caso... por no agobiarte paso

F7 C7

de hacerte la cuenta de las papelinas, de que no te fíe ni rafa el del Púb.,

F7 C7

de que vendas chapas en ciertas esquinas, de que te conozcan en cada hospital.



Bb F C

¿como te has dejado llevar a un callejón sin salida,

Bb F C

El mejor dotado de los conductores suicidas?

Bb F C

¿como te has dejado llevar a un callejón sin salida,

Bb F C7

El mejor dotado de los conductores suicidas?













ARREGLOS:(Pentatonica de SI MENOR)



Leyenda: bu: Estirar nota bd: Relajar nota m: Mute p:Pull off h:Hammer on

( ):Tocar bajito /:Slide V:Vibrato ~:Dejar sonar con poquito de vibrato

https://www.coveralia.com/acordes/conductores-suicidas-joaquin-sabina.php



Intro

M m m m

E----------------|-----------------------------------------

B----------------|-----------------------------------------

G----------------|---10bu---10bu*-10-10-10-10-10-8~--------

D-8--------------|----------10bu*----------------8---------

A-8--------------|-----------------------------------------

E----11--8-11-8--|-----------------------------------------



Turismo..Abismo.. Esta parte.. Marrón...

E----------------|-----------------------------------------|11bu--8-----------

B----------------|--------8------8-------------------------|------------------

G-----8-9/13-10~-|----------8------8--------8--------------|---------10bu-----

D---10-----------|-----10------10------8-10---10-8---------|------------------

A-11-------------|----------------------------------10/3---|------------------

E----------------|-----------------------------------------|------------------



Difícil Arte.. Bajo un chaparrón... Buscando en la basura..

E---------------------------------|--------3----------------|--------------------

B------8bu---8bd-(8------)Bajito--|----4bu---4--------------|-----1/4------------

G-8-10-----------(--10-8-)Bajito--|------------5-3-----5~~--|----3----5~---------

D---------------------------------|----------------(5)------|---5----------------

A---------------------------------|-------------------------|--6-----------------

E---------------------------------|-------------------------|--------------------



De Locura... Que has perdido siete kilos en un mes.. Una Mano..

E-----------------|--------------------------------------|---18/11----11-8--11-8h11~--

B-----------------|---------------16---------------------|------------11-8--11-8h11~--

G-----------------|-------15-17------17--15---------15~~-|----------------------------

D------5----5-----|15-17--------------------17-15--------|-15-------------------------

A--666---66---6~~-|-------------------------------18-----|----------------------------

E-----------------|--------------------------------------|----------------------------



Dejar ayudar.. igual que el fracaso..

E--------------------------------|-15bu-(15bd)p13--------------------------------

B----11bu-13-11------------------|-----------------16-13----13-15-15~13~~--------

G-12------------12-10-8----10~~--|-----------------------15----------------------

D-----------------------10-------|-----------------------------------------------

A--------------------------------|-----------------------------------------------

E--------------------------------|-----------------------------------------------



SOLO (PENT MAYOR Y MENOR DE SI) BUBU BUBU

E---------------------------------------------------------------------------------

B-8-8-8-8-8V~----------------------------13---15-15-13-13~~-15-15-13~~-13~-15-15--

G-8-8-8-8-8V~-5-7/8-8-8P5--------------14--14-------------------------------------

D-------------5-7/8-8-8P5-8-8-8h10------------------------------------------------

A-------------------------8-8-8h10------------------------------------------------

E---------------------------------------------------------------------------------

(Varias veces)

E---------------------------/10--10-11-11-13-13~--15----15------15-15-17-17-15---

B-13----13~-15-16-15-13~~---/10--10-11-11-13-13~--16-16-16-16--------------------

G----14----------------------------------------------17----17--------------------

D--------------------------------------------------------------------------------

A--------------------------------------------------------------------------------

E--------------------------------------------------------------------------------



E-13h15p13-----------------------------------------------------------------------

B-----------16-16~~-13---13-16-16-16-13~~-13-13-------------16-------------------

G----------------------15-----------------------------15-17----17-15---------15~~

D-----------------------------------------------15-17----------------17-15-------

A--------------------------------------------------------------------------18----

E--------------------------------------------------------------------------------







Letra subida por: Anónimo

El acorde de Conductores Suicidas de Joaquin Sabina es una versión de la canción original realizada por colaboradores/usuarios de Coveralia.

¿Has encontrado algún error en esta página? Envíanos tu corrección del acorde