música
Buscador

Acorde de Cómo Te Digo Eso - Conchita

Letra de Cómo Te Digo Eso



D Bm D Bm

E||---------------|-------------|---------------|----------|

B||----------10---|--7----------|----------10---|---7------|

G||-7---9---------|-------------|--7---9--------|----------|

D||---------------|-------------|---------------|----------|

A||---------------|-------------|---------------|----------|

E||---------------|-------------|---------------|----------|





D Bm

que difícil resulta todo aquí en mi habitación

D Bm

intento ordenar las palabras debajo del edredón

D7 G

verás, he conocido a alquien y es que me encantó

Gm D A

y a ver cómo te digo eso, a ver, a ver cómo te explico eso,

A7 D

no lo entiendo ni yo



D Bm

intento buscar las palabras, no causar tanto dolor

D Bm

intento ordenar las palabras, que suenen algo mejor

D7 G

y las ponga como las ponga, cada vez suena peor

Gm D A

y a ver cómo te digo eso, a ver, a ver cómo te explico eso,

A7 D

que es que me encantó



D7



G D D7

y ya sé cómo van las cosas, me dirán que fue un error

G D

que de la noche a la mañana cambié y que fui a peor

D7 G Gm

el corazón tiene razones que no entiendo ni yo, y a ver

D A

cómo te digo eso, a ver, a ver cómo te explico eso,

A7 D

que es que me encantó



(como el final del estribillo)

D - D7 - G - Gm

https://www.coveralia.com/acordes/como-te-digo-eso-conchita.php
D - A



A7 D

que es que me encantó





D7



G D D7

y ya sé cómo van las cosas, lo que todos pensarán

G D

que habrá que repartir amigos y que pocos me quedarán

D7 G Gm

y ahora lo que menos me importa es eso de que dirán, que a ver

D A

cómo te digo eso, a ver, a ver cómo te explico eso,

A7 D

no lo entiendo ni yo



D Bm D Bm D

E|---------------|-----------------------|-----------------|----------|---

B|----------10---|--7--------------------|------------10---|---7------|---

G|-7---9---------|-----------------------|----7---9--------|----------|---

D|---------------|-----------------------|-----------------|----------|---

A|---------------|-----------------------|-----------------|----------|---

E|---------------|-----------------------|-----------------|----------|---

no lo entiendo ni yo







D Fm Bm G Em A7 Am/D

xx==== ====== x===== ====== ====== x===== xx====

|||||| |||||| |||||| |||||| |||||| |||||| ||||o|

|||o|o oooooo oooooo |o|||| |oo||| ||o|o| |||o||

||||o| |||||| ||||o| o||||o |||||| |||||| ||||||

|||||| |oo||| ||oo|| |||||| |||||| |||||| ||||||





Gm D7

====== xx====

|||||| ||||o|

|||||| |||o|o

oooooo ||||||

||||||

|oo|||

Letra subida por: Anónimo

Discos en los que aparece este acorde: Nada Mas

El acorde de Cómo Te Digo Eso de Conchita es una versión de la canción original realizada por colaboradores/usuarios de Coveralia.

¿Has encontrado algún error en esta página? Envíanos tu corrección del acorde