música
Buscador

Acorde de Cómo Has Hecho - Los Del Bohio

Intro



DO# SOL# FA#

e----------------------------------------

b----------------------------------------

G---6--6--6--6---------------------------

D----------------6--6--6--6---4--4--4--4-

A-4--4--4--4-----------------------------

E--------------4--4--4--4---2--2--2--2---



DO# SOL#

e---------------

b---------------

G---6--6--------

D----------6--6-

A-4--4----------

E--------4--4---





DO# SOL#

Debí saber que al amarte yo te perdía

FA# DO# SOL#

debí saber que tu mundo ya no era mío

DO# SOL#

Es tan lejano aquel día en que me decías

FA# DO# SOL#

ya no soy niña no juegues con sentimientos





DO# SOL#

Cómo has hecho para amarme así

FA# DO# SOL#

Cómo has hecho que te quiera así

DO# SOL#

https://www.coveralia.com/acordes/como-has-hecho-los-del-bohio.php

Cómo has hecho me mataste amor

FA# DO# SOL#

Cómo has hecho, cómo has hecho



DO# SOL#

Al saberte ajena a mis sentimientos

FA# DO# SOL#

Deseo preguntarte que has hecho en mí



e-13(x9)-14-16-14-13------------14(x9)-16-18-16-14-13--------

b--------------------16-14(x9)------------------------16(x9)-

G------------------------------------------------------------

D------------------------------------------------------------

A------------------------------------------------------------

E------------------------------------------------------------



e------------------------------------------------------

b-2-2--------2-2-------4-4-------4-4-------4-2-2-------

G-----1---1-----1---1------5---5-----5---5-------1---1-

D-------3---------3----------6---------6-----------3---

A------------------------------------------------------

E------------------------------------------------------



e-----------------------

b-----------------------

G-1-1-------------------

D-----3---6-4-3---------

A-------4-------6-4-3-4-

E-----------------------







Letra subida por: Anónimo

Discos en los que aparece este acorde: La Historia Continua (Latente) / En Vivo 2004

El acorde de Cómo Has Hecho de Los Del Bohio es una versión de la canción original realizada por colaboradores/usuarios de Coveralia.

¿Has encontrado algún error en esta página? Envíanos tu corrección del acorde