música
Buscador

Acorde de Citizen Zero - Kamelot

Letra de Citizen Zero

====INTRO TAB====
(also repeated in outro)
D|-------------------------|-------------------------|--------------------------|
A|-------15-------15----15-|-------15----------------|-------------13-----------|
F|----14----14-13----12----|----14----14----14-------|-------15----------15-----|
c|-12----------------------|-15----------14-------14-|----15----15----15----15\-|
G|-------------------------|-------------------12----|-13-----------------------|
C|-------------------------|-------------------------|--------------------------|
   1     2     3     4       1     2     3     4       1     2     3    4
   Cm                                                  Absus2

D|---------------------|-----|-------------------------|-------------------------|
A|-------------10------|-----|-------15----14----------|-------------------------|
F|-------12------------|-----|----14----14----14-13-14-|-15----------15----------|
c|----12----12---------|-----|-12----------------------|----15----15----14----14-|
G|-10------------------|-----|-------------------------|-------16----------15----|
C|---------------------|-----|-------------------------|-------------------------|
   1     2     3   4           1      2     3     4      1     2     3     4
   Fsus2                       Cm                        Abm         Bb7

D|--------------------------|---------------------|--------|
A|-------------13-----------|---------------------|--------|
F|-------15----------15-----|-------14----15------|--------|
c|----15----15----15----15\-|----14----14---------|--------|
G|-13-----------------------|-12------------------|--------|
C|--------------------------|---------------------|--------|
    1     2     3    4        1      2     3  4
    Absus2                    G
==END INTRO TAB==


ORDER: I V1 PC1 C V2 PC2 C INT1 INT2 B INT3 C FC O


[INTRO]
Cm |        | Absus2 | Fsus2 | |
Cm |Abm Bb7 | Absus2 | G     | |
(add band)
Cm |           | Absus2 | Fsus2 |
Cm |Abm/Cb Bb7 | Absus2 | G     | |

Cm | | Abm | Fm   Db |
Cm | | Abm | Fm      | Cm |
4   4  4     4         2   (beats)


[VERSE 1]
Cm
   I wait to surface
    Eb                  Bb/D
   Above these bellowed growls
Cm                           Fsus2 Db
   To sweep the shallows of utopia
Cm
   I am the anchor 
           Eb                   Gm/D
   and the rope around your feet
Cm                            Fm   Db
   In a river deep I hold you down


[PRE-CHORUS 1]
Cm                           Fm7/C   Cm
   I've come to stage your abdication
Fm            Eb/G        Ab
   I'm the crea - tion of your sins
     Db
   Embrace me


[CHORUS]
         Cm
When the hounds are out

Feeding me a lie
         Ab
When the hounds are out
   G
My sickness is released
         Cm
When the cards are down

For all the world to see
         Ab
When the cards are down
        G
And the strings are cut
                      Cm
These mannequins will sleep


[VERSE 2]
Cm
   In the center

   Of your greed infected wounds
Cm
   I am a thorn of endless sorrow
Cm
   Just one of thousands
           Bb7/C
   In your self-selected crown
     Abmaj7/C
   A king    to wallow in the mire
       Db      ( G )
   And roll in defeat...


[PRE-CHORUS 2]
Cm                        Dm7b5/C    Cm
   I will protect the incuba  -  tion
Fm           Eb/G      Ab
   I am your bottomless  decease
     Db
   Embrace me


[CHORUS]
         Cm
When the hounds are out

Feeding me a lie
         Ab
When the hounds are out
   G
My sickness is released
         Cm
When the cards are down

For all the world to see
         Ab
When the cards are down
        G
And the strings are cut
                      Cm
These mannequins will sleep


[INTERLUDE 1] - choral
Gm
     Pater noster
Cm/Eb    Ab/C
     Invidia
Gm
     Ira gula
Fm          Ab    Gm
     Superbia  acedia

     Pater noster
       Gm Ab
     Luxuria
     Gm
     A - varitia
              Ab
     Pater parce meis peccatis


[INTERLUDE 2] - keyboard solo
Cm | Fm | Bbm | Ab Eb |
Cm | Fm | Bbm | Ab Eb |


[BRIDGE]
C5
All I see

Is mine to take

To have and to hold...

To suffocate

All I want

Is mine to keep

And I want it all

So father forgive me...


[INTERLUDE 3] - guitar solo
Cm | Fm | Bbm | Ab Eb |
Cm | Fm | Bbm | Ab Db |


[CHORUS]
         Cm
When the hounds are out

Feeding me a lie
         Ab
When the hounds are out
   G
My sickness is released
         Cm
When the cards are down

For all the world to see
         Ab
When the cards are down
        G
And the strings are cut
                      Cm
These mannequins will sleep


[FINAL CHORUS]
       ( Cm )
When the hounds are out

Feeding me a lie
         Ab
When the hounds are out
   G
My sickness is released
         Cm
When the cards are down

For all the world to see
         Ab
When the cards are down
        G
And the strings are cut
                      Cm
These mannequins will sleep


[OUTRO]
Cm |        | Absus2 | Fsus2 |
Cm |Abm Bb7 | Absus2 | G     | |


Letra subida por: Anónimo

Discos en los que aparece este acorde: Haven , Haven (Limited Edition) , Haven (Japan Edition)

El acorde de Citizen Zero de Kamelot es una versión de la canción original realizada por colaboradores/usuarios de Coveralia.

¿Has encontrado algún error en esta página? Envíanos tu corrección del acorde