música
Buscador

Acorde de Cigarrito - Platero Y Tu

Letra de Cigarrito

   Intro



e---------------------------------------------------------------

B---------------------------------------------------------------

G----3&5&6-6-5&3&5&3--------3-----3&5&6-6-5&3&5&3-------3---3&--

D--5------------------3-5-5----5------------------3-5-5---5-----

A---------------------------------------------------------------

E---------------------------------------------------------------

... (tocar lo que se repite unas 11 ó 12 veces)



e-------10-10-8---10b-------- (con algo de wah o efecto parecido)

B--8-10--------11------------





SOL5 RE#5

Voy a parar en el camino y en lo que dura un cigarrito

DO5 FA5 FA5-SOL5

voy a pensar en estos años todo lo que ha pasado.

RE#5

En el cajon de la memoria guardo trocitos de la historia

DO5 FA5 FA5-SOL5

Las paginas que ya han pasado de un libro inacabado...

(SOL5) RE#5

Cantar sabiendo lo que dices. Es tarde para arrepentirse.

DO5 FA5

Pensar a veces que no hay nada... que son solo cicatrices.



RE#5-RE5-DO5-riff1 RE#5-RE5-DO5-riff2

RE#5-RE5-DO5 (SOL5)

(Correción, yo creo que es así, aunque del do5 no estoy muy seguro:)

RE#5-LA#5-FA-riff1 DO5 SOL5 RE#5-LA#5-FA-riff2 DO5 SOL5

Es mejor que se pare el tren y mirar que todo va bien

RE#5-LA#5-FA

que si no, no me entero



(repetir intro)



SOL5

Dan dubi dubi dubi dan bambero...

RE#5

y el conejo saca a un mago del sombrero

DO5

Tu y yo somos dos; ya sabes que te quiero,

https://www.coveralia.com/acordes/cigarrito-platero-y-tu.php

FA5 FA5-SOL5

pero 2 y 2 son 4 y 4 los Platero.

SOL5 RE#5

Cantar sabiendo lo que dices. Es tarde para arrepentirse.

DO5 FA5 FA5-SOL5

Pensar a veces que no hay nada... que son solo cicatrices.

SOL5 RE#5

Y lo que otros piensen quiza no me interese.

DO5 FA5

¡Hoy quiero ver tus ojos para tocar mas fuerte!





RE#5-LA#5-FA-riff1 DO5 SOL5 RE#5-LA#5-FA-riff2 DO5 SOL5

Es mejor que se pare el tren y mirar que todo va bien

RE#5-LA#5-FA

que si no, no me entero

solo



RE#5-LA#5-FA-riff1 DO5 SOL5 RE#5-LA#5-FA-riff2 DO5 SOL5

Es mejor que se pare el tren y mirar que todo va bien

RE#5-LA#5-FA

que si no, no me entero



solo final



riff 1



e------------------

B-------------3----

G-----------3---3--

D---------3--------

A-----3-5----------

E-3-6--------------



riff 2



e------------------

B-------------3b---

G-----------3------

D---------3--------

A-----3-5----------

E-3-6--------------

Letra subida por: Anónimo

El acorde de Cigarrito de Platero Y Tu es una versión de la canción original realizada por colaboradores/usuarios de Coveralia.

¿Has encontrado algún error en esta página? Envíanos tu corrección del acorde