música
Buscador

Acorde de Charlie Don't Surf - The Clash

Letra de Charlie Don't Surf

 RIFF 

----------------------------------------9-10-7---------

-7-7-7-7--7--7-10-7---------7-7-7-7--7---------10-7----

--------------------9-7--------------------------------

-------------------------------------------------------

-------------------------------------------------------

-------------------------------------------------------

----------------------------------------10-9---7-------

-7-7-7-7--7--7-10-7---------7-7-7-7--7-------10--10--7-

--------------------9-7--------------------------------

-------------------------------------------------------

-------------------------------------------------------

-------------------------------------------------------



CHORUS

D Bm

Charlie don't surf and we think he should

D Bm

Charlie don't surf and you know that it ain't no good

D Em7

Charlie don't surf for his hamburger Momma

F#m7

Charlie's gonna be a napalm star

RIFF (you can strum with a x-x-0-4-0-2 ? rather than the riff)

Everybody wants to rule the world

Must be something we get from birth

One truth is we never learn

Satellites will make space burn

D Bm

We've been told to keep the strangers out

D Bm

We don't like them starting to hang around

https://www.coveralia.com/acordes/charlie-don-t-surf-the-clash.php
D Em7

We don't like them over town

F#m7

Across the world we are going to blow them down

CHORUS

RIFF

The reign of the super powers must be over

So many armies can't free the earth

Soon the rock will roll over

Africa is choking on their Coca Cola

D Bm

It's a one a way street in a one horse town

D Bm

One way people starting to brag around

D Em7

You can laugh, put them dowm

F#m7

These one way people gonna blow us down

CHORUS

Charlie don't surf he'll never learn

Charlie don't surf though he's got a gun

Charlie don't surf think that he should

Charlie don't surf we really think he should

Charlie don't surf

Charlie don't surf and we think he should

Charlie don't surf and you know that it ain't no good

Charlie don't surf for his hamburger Momma

Charlie don't surf





Letra subida por: Anónimo

Discos en los que aparece este acorde: Sandinista!

El acorde de Charlie Don't Surf de The Clash es una versión de la canción original realizada por colaboradores/usuarios de Coveralia.

¿Has encontrado algún error en esta página? Envíanos tu corrección del acorde