música
Buscador

Acorde de Carne De Obra - Disidencia

Letra de Carne De Obra





INTRO:



pm..

A F A F A F G G# A cc FF EEEE

E|-------------------------------------------------------------------------------------|

B|---------5-3---3------------5-3---3-----------5-3---3-3-3h5-3------------------------|

G|-------3-----5------------3-----5-----------3-----5-----------5----------------------|

D|-----------------3------------------3------------------------------------------------|

A|-------------------------------------------------------------------------------------|

E|-------------------------------------------------------------------------------------|





PUNTEO 1:



A F C G A F C G

E|---------------------------------------------------------------------------------------------------------|

B|-------5-3----------5-3-----------5-3---3-5b-5-3---------5-3---------5-3----------5-3---3-5b-------------|

G|--5555-----5-4----------5-4-55555-----5-------------5555-----5-4---------5-4-5555-----5--------0-1-2~~---|

D|---------------3333---------------------------------------------3333-------------------------------------|

A|---------------------------------------------------------------------------------------------------------|

E|---------------------------------------------------------------------------------------------------------|









A C F E

Sobre la ciudad de la gloriosa tierra sita en occidente

A C F E

No relumbra mas el sol que recalentaba a la pobre gente

A C F E G G#

Veras el hambre entrar el frio llegara tambien la enfermedad

A C F E

La espera durara hay cambio de poder aguanta un poco mas





F A

De las montañas hasta el mar

F C G

El hombre pisara los pies de la propiedad





PUNTEO 2:



A F C G A F C G

E|------------------------------------------------------------------------------------------------------------|

B|-------------------------5555-66666-55555-33333--------------------------------5555-66666-55555-33333-------|

G|---5-5-4-4-5--5-5-4-4-5-------------------------555-444---5-5-4-4-5--5-5-4-4-5------------------------------|

D|------------------------------------------------------------------------------------------------------5-6---|

A|------------------------------------------------------------------------------------------------------------|

E|------------------------------------------------------------------------------------------------------------|



+ Punteo 1







A C F E

Otro dia mas dejas tus sueños entre el colchon y la manta

A C F E

Vuelve la realidad no hay otra opicion es el capital el que manda

A C F E G G#

Te has vuelto a dejar la piel de tanto obrar en la mina y el telar

A C F E

Ayer murio uno mas hoy a quien le tocara el tiempo lo vera

https://www.coveralia.com/acordes/carne-de-obra-disidencia.php







F A B|---------55555-33333----------|

Cuando te canses de aguantar + G|---33333-------------55555----|



F C G

Reune a la gente para todos juntos poder luchar







A C F E

Basta resistencia popular sin guerra entre pueblos y sin paz entre clases



A C F E

Vamos hacia la libertad la idea se levantara y caminara





PUNTEO 3:



C G A E F E C D

E|----------------------------------------------------|

B|----------------------------------------------------|

G|--9-7----7-----------------------5-4-5-5/7~~--------|

D|------10-------10-9-7-9--7-5---5--------------------| x2 + Punteo 1

A|-----------10----------------8----------------------|

E|----------------------------------------------------|







A C F E

Ante su justicia el pueblo no se vende



A C F E

Con martillo en mano el pueblo se defiende



A C F E

Ningun paso atras hay que avanzar hacia la igualdad



A C F E

Empezar a caminar buscando el amor y la solidaridad





F A B|-3/5-5-5-5-5-5p3-3\1-1----|

Entre el que traga y tragara + G|--------------------------|



F C G

Entre quienes resisten y entre quien no olvidara





A C F E

Basta resistencia popular sin guerra entre pueblos y sin paz entre clases



A C F E

Vamos hacia la libertad la idea se levantara y caminara





PUNTEO 3 + E F AA











Letra subida por: Anónimo

Discos en los que aparece este acorde: La Solucion Esta En Tus Manos

El acorde de Carne De Obra de Disidencia es una versión de la canción original realizada por colaboradores/usuarios de Coveralia.

¿Has encontrado algún error en esta página? Envíanos tu corrección del acorde