música
Buscador

Acorde de Caperucita Roja - Pedro Guerra

Letra de Caperucita Roja

    Gm

|--------------------------------------------------------------|

|-----3------------3----3---------4----------6------6----------|

|-----3------------3----3---------5----------5------5----------|intro x2

|--------------------------------------------------------------|

|----------5/6/5---------------------5/6/5---------------------|

|--3------------------3-------5-----------------5--------------|



las estrofas van igual que el intro.





Las cosas son porque suceden

y ella las toma cuando llegan

si ese camino es el más corto

ha de seguir esa vereda



no sabe nada de peligros

tan natural como la hierba

es la semilla de la vida

lleva una luz en su cabeza



CORO

|--------------------------------------------------------------|

|-----4------------6------6-------4----------6------6----------|

|-----5------------5------5------5----------5------5-----------|

|--------------------------------------------------------------|

|----------5/6/5---------------------5/6/5---------------------|

|--5-------------------5------5-----------------5--------------|



...robó el candor



|---------------------------------------------------------------|

|------3-----------3---3----3----------2--------3-------1-------|

|------3-----------3---3----3----------3--------2-------2-------|

|---------------------------------------------------------------|

|----------5/6/5----------------------------1-------------------|

|--3-----------------3----3--------1----------------1-----------|

... inocencia



|---------------------------------------------------------------|

|-----4------------6-------6------------------------------------|

|-----5------------5-------5------------------------------------|

|---------------------------------------------------------------|

|---------5/6/5-------------------------------------------------|

|--5--------------------5---------------------------------------|



¿quién le robó el candor

la flor de la inocencia

la caperuza roja

que alumbraba sus trenzas?





|--------------------------------------------------------------|

|-----3------------3----3---------4----------6------6----------|

|-----3------------3----3---------5----------5------5----------|x2

|--------------------------------------------------------------|

|----------5/6/5---------------------5/6/5---------------------|

|--3------------------3-------5-----------------5--------------|



las cosas son porque suceden

y cada día es una fiesta

la vida es toda una sonrisa

que agita al viento su bandera

https://www.coveralia.com/acordes/caperucita-roja-pedro-guerra.php



pero hay un lobo entre las flores

agazapado en la maleza

que busca tiernos corazones

con que saciar su mente enferma



CORO



|--------------------------------------------------------------|

|-----4------------6------6-------4----------6------6----------|

|-----5------------5------5------5----------5------5-----------|

|--------------------------------------------------------------|

|----------5/6/5---------------------5/6/5---------------------|

|--5-------------------5------5-----------------5--------------|



...robó el candor



|---------------------------------------------------------------|

|------3-----------3---3----3----------2--------3-------1-------|

|------3-----------3---3----3----------3--------2-------2-------|

|---------------------------------------------------------------|

|----------5/6/5----------------------------1-------------------|

|--3-----------------3----3--------1----------------1-----------|

... inocencia



|---------------------------------------------------------------|

|-----4------------6-------6------------------------------------|

|-----5------------5-------5------------------------------------|

|---------------------------------------------------------------|

|---------5/6/5-------------------------------------------------|

|--5--------------------5---------------------------------------|



¿quién le robó el candor

la flor de la inocencia

la caperuza roja

que alumbraba sus trenzas?

A#maj7

|-------------------------------------------------------------------------|

|-----3-3----3---3-----3-3----3----3--------4-4------4-----4---4----------|

|-----2-2----2---2-----2-2----2----2--------5-5------5-----5---5----------|

|-------------------------------------------------------------------------|

|--1------1---------1------1----------------------5----------5-----5/6/5--|

|-------------1-----------------1-------5---------------5-----------------|









|--------------------------------------------------------|

|--6-------6---------3------------3----3-----3---------2-|

|--5-------5---------3------------3----3-----3---------3-| x2

|--------------------------------------------------------|

|-------------------------5/6/5--------------------------|

|------5----------3------------------3-----3------1------|



Caperucita roja

no ve la faz del lobo

ni su intención feroz

Caperucita roja

ingenua y distraída

le da su corazón.



CORO x2

Letra subida por: Anónimo

Discos en los que aparece este acorde: El Mono Espabilado

El acorde de Caperucita Roja de Pedro Guerra es una versión de la canción original realizada por colaboradores/usuarios de Coveralia.

¿Has encontrado algún error en esta página? Envíanos tu corrección del acorde