música
Buscador

Acorde de Cantalojas - Platero Y Tu

Letra de Cantalojas

INTRO:



e |----------------------------------------------------------------||

B |-------------6---------------6-------------------------------6--||

G |-2-5-2-------7---2-5-2-------7---2-5-2-------3---2-5-2-------7--||

D |-------3---7-7---------3---7-7---------3-5---5---------3---7-7--||

A |---------5-5-5-----------5-5-5-------------5-5-----------5-5-5--||

E |-------------------------------------------3-3------------------||



e |------------------------------------------||

B |------------------------------------------||

G |-2-5-2------------------------------------||

D |-------3-5--7-6-5---------3-3------5-3-5--||

A |------------7-6-5-------3------5----------||

E |------------5-4-3---3-5-------------------||





Dm

Por el puente Cantalojas

Dm

a las doce menos diez

Gm

se ha asomado un borracho

Dm

para ver salir un tren;

A-G#-G

su mirada estaba triste

Dm

pues mi amor se ha ido en él.

https://www.coveralia.com/acordes/cantalojas-platero-y-tu.php



Una chica de las Cortes

ya cansada de vivir

aguantando a este borracho

se ha pirado "pa" Madrid;

ya no quiere dar más besos

disfrazados de carmín.



Por el puente Cantalojas

a las doce menos diez

se ha asomado un borracho

para ver salir un tren;

su mirada estaba triste

pues su amor se ha ido en él.



F C Dm

En el puente el silencio se puede cortar,

F C Dm

ha roto una botella y se ha puesto a llorar,

F C Dm

y se va caminando buscando un hogar;

A A-G#-G Dm

si la luna le guía lo podrá encontrar.



Después de esto vuelve a la INTRO y hay un punteo hasta el final





Letra subida por: Anónimo

El acorde de Cantalojas de Platero Y Tu es una versión de la canción original realizada por colaboradores/usuarios de Coveralia.

¿Has encontrado algún error en esta página? Envíanos tu corrección del acorde