música
Buscador

Acorde de Canción De Invierno - Silvio Rodriguez

Letra de Canción De Invierno

Intro:





|B |A |B

e|----------------------------------

B|0---0-5-4-2-4-0-------0-2-2p4p2-0-

G|----------------2---2-------------

D|----------------------------------

A|----------------------------------

E|----------------------------------



|B |A |B |A |B

e|------------------------------------------------

B|0-5-4-2-4-0-------0-2-4-2-0------2---0-2-2p4p2-0

G|------------2---2------------1-2---2------------

D|------------------------------------------------

A|------------------------------------------------

E|------------------------------------------------



|A

e|-------------5

B|0-5-4-2-4-0---

G|--------------

D|--------------

A|--------------

E|--------------





A B A

Es día de frío y llegas a casa

B A

vienes de la tarde cansada de un jueves

E F#

los muebles, tu perro y millones de ojos

G#

están como siempre esperando tu vuelta

C#m

en la que presientes que nada ha cambiado

E F#

te espera lo mismo, el sueño ha pasado.

https://www.coveralia.com/acordes/cancion-de-invierno-silvio-rodriguez.php



A B A

Recoges tu pelo tan libre en la tarde,

B A

quizás porque alguien nunca lo vio preso,

E F#

te sientas y cenas y todas las culpas

G#

te dan con un peso mayor que tus fuerzas

C#m

y pugnan tus ojos y esta tarde loca,

E F#

hasta que eres débil y tapas tu boca.



A B A

Cuando todo pasa te crees segura,

B A

mientras con tus horas revuelves cenizas,

E F#

presientes muy dentro pasiones prohibidas

G#

no importa mentirse para ser felices

C#m

hasta que un deseo se mete en tu lecho,

E F#

mas que estas pensando, te tapas el pecho.



A B A

Pero necesitas quedar bien con todo,

B A

todo que no sea bien contigo misma,

E F#

la angustia es el precio de ser uno mismo,

G#

mejor ser felices como nuestros padres

C#m

y hacer de la lastima amores eternos,

E F#

hasta que a la larga te tape el invierno.

Letra subida por: Anónimo

Discos en los que aparece este acorde: Triptico (Volumen Uno)

El acorde de Canción De Invierno de Silvio Rodriguez es una versión de la canción original realizada por colaboradores/usuarios de Coveralia.

¿Has encontrado algún error en esta página? Envíanos tu corrección del acorde