música
Buscador

Acorde de Camino Difícil - Almendra

Letra de Camino Difícil



F Gm Dm C

Esta noche siguen mas atras

F Gm

mis gritos, tus flores

Dm C

y la libertad

C G/Bb

¿no ves que el tiempo

Am Dm

se quedo

C Bb Dm F G Bb

a vivir?



Compañero toma mi fusil

ve y abraza

a tu general

¿no ves que el tiempo

se quedo

a vivir?



Ven al campo mirate crecer

mira el agua

ves que claro esta

¿no ves que el tiempo

se quedo

a vivir?



https://www.coveralia.com/acordes/camino-dificil-almendra.php

Solo:

||----------------------------------------

||----------------------------------------

||--15(17)(17)(15)14-12-12-12-------10h12-

||----------------------------10h12-------

||----------------------------------------

||----------------------------------------



||-----------------------------

||-----------------------------

||-12(14)---15(17)-14-12-12-12-

||-----------------------------

||-----------------------------

||-----------------------------





||--------------/15-15-13-----------13h15-17-19(20)-

||------------------------13--13h15-----------------

||--/17-14-17---------------------------------------

||--------------------------------------------------

||--------------------------------------------------

||--------------------------------------------------



¿No ves que el tiempo

se quedo

a vivir?

Fue un placer colaborar

Letra subida por: Anónimo

Discos en los que aparece este acorde: Almendra 2 , Almendra (1996)

El acorde de Camino Difícil de Almendra es una versión de la canción original realizada por colaboradores/usuarios de Coveralia.

¿Has encontrado algún error en esta página? Envíanos tu corrección del acorde