música
Buscador

Acorde de Cámara De Faltas - Enjambre

Letra de Cámara De Faltas

(Por: lalo)



acordes





F#m D/D# G#9dimm5 C#m/D B9dimm5



E--9-- --x-- --x-- --x-- --x--

B--10- --7-- --6-- --5-- --9--

G--11- --7-- --7-- --6-- --10-

D--11- --7-- --6-- --6-- --9--

A--9-- --6-- --x-- --5-- --x--

E--x-- --x-- --x-- --5-- --x--





Bm A/F# F#m7 C#m7 Esus4



E--7-- --12- --9-- --9-- --7--

B--7-- --10- --10- --9-- --7--

G--7-- --9-- --9-- --9-- --9--

D--9-- --11- --11- --9-- --9--

A--9-- --x-- --9-- --11- --7--

E--7-- --x-- --x-- --9-- --x--















Intro (PM)



F#m, D/D#, G#9dimm5, C#m/D







F#m D/D# G#9dimm5 C#m/D

Son presentimientos rumores entre vientos







F#m D/D#

de que vas a ese centro





G#9dimm5 C#m/D F#m D/D#

iré A ver SI te encuentro nos vemos por la noche







G#9dimm5 C#m/D

en la cámara de faltas





F#m D/D# G#9dimm5 B9dimm5

y entre ruido y derroche te diré en voz alta





Coro





A/F# F#m7 C#m7

pierdes tu tiempo en este lugar ahogas lamentos





C#m7

en tragos y aceptación social





Solo





e----------------------------------------------------------------

b-7--9-10--14s9---7--7-99s11-------------------------------------

g-------------------7-------11--9-7------------------------------

d-------------------------------------4--0-4-0-44s6--------------

a-----------------------------------------7---7-----7-9-11-7-9-11

E----------------------------------------------------------------





e------------------------

b------------------------

g---6-66s9-7-6-1---------

d----7-------------------

a------------------------

E------------------------









F#m D/D#

no hay nada para ti o para mi







https://www.coveralia.com/acordes/camara-de-faltas-enjambre.php

G#9dimm5 C#m/D

aquí ¿quien nos extrañaría?





F#m D/D# G#9dimm5 B9dimm5

con tu boca y la mía animemos los días







A/F# F#m7 C#m7

pierdes tu tiempo en este lugar









C#m7

ahogas lamentos





C#m7

en tragos y aceptación social





A/F# F#m7

vente conmigo ¿cual es tu afán







C#m7

de aquel falso abrigo?





C#m7 D/D#

vámonos no regresemos jamas





C#m/D

con ellos no tenemos que sincronizar





D/D# B9dimm5

a nuestro ritmo vamos a bailar







Puente (PM)





F#m, D/D#, G#9dimm5, C#m/D





F#m, D/D#, G#9dimm5. B9dimm5





Bm Esus4

e--7---7---7-----7-------7-7-7-7-

b--7----7---7----7-------7-7-7-7-

g--7-7---7---7---9-------9-9-9-9-

d--9-------------9-9-9-9-9-9-9-9-

a--9-------------7-7-7-7-7-7-7-7-

E--7-----------------------------









A/F# F#m7

perdamos tiempo en otro lugar





C#m7

si tu y yo nos tenemos







C#m7 A/F# F#m7 C#m7

no necesitamos a nadie maaaaaas aaaaaaaa aaaaaaaa







C#m7

aaaaaa







Final (PM)



C#m/D



e----------------------------------------4--|

b----------------5-5---------------5-5-5-5--|

g----------------6-6-----------6-6-6-6-6-6--|

d----------------6-6-----------6-6-6-6-6-6--|

a------5---5---5-5-5---5---5-5-5-5-5-5-5-5--|

E--5-5-5-5-5-5-5-5-5-5-5-5-5-5-5-5-5-5-5-5--|

Letra subida por: Anónimo

Discos en los que aparece este acorde: Enjambre Y Los Huespedes Del Orbe

El acorde de Cámara De Faltas de Enjambre es una versión de la canción original realizada por colaboradores/usuarios de Coveralia.

¿Has encontrado algún error en esta página? Envíanos tu corrección del acorde