música
Buscador

Acorde de Butterfly - Screaming Trees

Letra de Butterfly

Standard tuning (E, A, D, G, B, E)



Intro



e|--0-0-0-0-0-0-|

B|--2-2-2-3-3-2-|

G|--2-2-2-2-2-2-|

D|--2-2-2-2-2-2-|

A|--0-0-0-0-0-0-|

E|--0-0-0-0-0-0-| Do this four times and then switch to a 'C' chord (shown

below)

e|--0-0-0-0-0-0-|

B|--1-1-1-1-1-1-|

G|--0-0-0-0-0-0-|

D|--2-2-2-2-2-2-|

A|--3-3-3-3-3-3-|

E|--0-0-0-0-0-0-|



After using the 'C' chord you just go back to the first chord i've shown you ('A'

repeat that riff like twice i think it is. The struming to all this is simple, just listen to

song and you'll catch onto it easy.



Verse



e|--0

B|--1

G|--0

D|--2

A|--3

E|--0 Strum around with this 'C' Chord about 12 times and then switch back to an 'A'

(shown below) and strum with that chord for about 12 times aswell.

https://www.coveralia.com/acordes/butterfly-screaming-trees.php



e|--2

B|--2

G|--2

D|--2

A|--0

E|--0



This is all the basic verse is.



Chorus



e|--3-3-2-2-0-0-0-0-0--|

B|--0-0-3-3-2-2-2-2-2--|

G|--0-0-2-2-2-2-2-2-2--|

D|--0-0-0-0-2-2-2-2-2--|

A|--2-2-0-0-0-0-0-0-0--|

E|--3-3-0-0-0-0-0-0-0--| This is the basic chorus ('G' 'D' 'A') Play the chords as i've

shown you if you wana play it acousticly but if you want to play it electric like the

i suggest do power chords as im about to show you bellow



e|--------------|

B|--------------|

G|------7-7-----|

D|--5-5-7-7-7-7-|

A|--5-5-5-5-7-7-|

E|--3-3-----5-5-| These are the power chords if you wish to play the song chorus electric.





Letra subida por: Anónimo

El acorde de Butterfly de Screaming Trees es una versión de la canción original realizada por colaboradores/usuarios de Coveralia.

¿Has encontrado algún error en esta página? Envíanos tu corrección del acorde