música
Buscador

Acorde de Buscando Razón - Tano Romano

Letra de Buscando Razón

Riff A

e|---------------------------------------------------|

B|---------------------------------------------------|

G|---------------------------------------------------|

D|-------------------------------------------5-------|

A|--5-7---------5-7------------5-7-------5-7---7~----|

E|------5-7--0------5-7---0-0------5-7-0-------------|



A)

|--------------------|

|--------------------|

|-7-7----------------|

|-7-7----------------|

|-5-5----------------|

|--------------------|





B) (A5-E5)x3 C5-B5

C) G5-D5-C5-D5-E5

D) Base solo: G-D-C-B-E



Intro: Riff A 4 veces



A) A)

Buscando razón,que me impida despreciarteeee!

Riff A

A) A)

Nació esta canción,que tal vez pueda alcanzarteeee!

Riff A



B)

Mi rechazo hacia tus baladas de amor,

me llego desde pendejo.

Cuando V8 era mala palabra,

se intentaba con vos lavarnos cerebros

Riff A



C)

Fuiste azota del jazz-rock,

reggae, pop, new-wave, moderno



D)

Hoy cantas tus amorios

con fanfarrias de rockero.

Riff A



B)

Yo que nunca comparti tu pose Stone,

voy a deschavarte el juego:

Sos veleta de la moda y no me asombra,

que mañana amanezcas metalero

Riff A







Solo: Creo que seuna más o menos asi....

e-------------10~---------------------------------------------

b-7/12~--10-------13-12-10~-----10----------------------------

g-----------12--------------12--------7/12-11-9-11-9-8--9~----

d---------------------------------12~-------------------------

https://www.coveralia.com/acordes/buscando-razon-tano-romano.php

a-------------------------------------------------------------

E-------------------------------------------------------------



e------------7-8-10-8-7--------------------------8/10---------

b-----7-8-10------------10-8-7-8-8/10-8-7h8p7-----------------

g-7-9-----------------------------------------7~--------------

d-------------------------------------------------------------

a-------------------------------------------------------------

E-------------------------------------------------------------



e-8-7h8p7---------------12/15-14-12--------12-14-15-14-12-----

b--------8/10-8-7-7h8~--------------12~-12----------------15~-

g-------------------------------------------------------------

d-------------------------------------------------------------

a-------------------------------------------------------------

E-------------------------------------------------------------



e----12-14-15-14-12-11-12-14-12~------------------7-8-10-8-7--

b-12-----------------------------12~-10-8--7-8-10-------------

g-------------------------------------------------------------

d-------------------------------------------------------------

a-------------------------------------------------------------

E-------------------------------------------------------------



e----------------------------15h14/12h14p12----12-------------

b--8-7-10-8-7---8-7-------------------------15----15-13h15p13-

g-------------9------9-8-7~-----------------------------------

d-------------------------------------------------------------

a-------------------------------------------------------------

E-------------------------------------------------------------



e-------------------------------------------------------------

b-12h13p12----12----------------------------------------------

g----------14----14p12----------------------------------------

d---------------------14~-------------------------------------

a-------------------------------------------------------------

E-------------------------------------------------------------



Riff A



A)

Buscando razón

que me impida despreciarte,

A)

nació esta canción

que tal vez pueda alcanzarte.



B)

Mi rechazo hacia tus baladas de amor,

me llego desde pendejo.

Cuando V8 era mala palabra,

se intentaba con vos lavarnos cerebros.



C)

Fuiste azota del jazz-rock,

reggae, pop, new-wave, moderno.

Hoy cantas tus amorios

con fanfarrias de rockero.

Discos en los que aparece este acorde: 25 Años De Puro Sentimiento

El acorde de Buscando Razón de Tano Romano es una versión de la canción original realizada por colaboradores/usuarios de Coveralia.

¿Has encontrado algún error en esta página? Envíanos tu corrección del acorde