música
Buscador

Acorde de Bourgeois - Phoenix

Letra de Bourgeois

Intro : 



Synth or guitar

E-5-5-5-7-7-7-5-5-5-5-5-7-7-7-5-5-5-|

B-5-5-5-5-5-5-5-5-5-5-5-5-5-5-5-5-5-|

G-----------------------------------|

D-----------------------------------|

A-----------------------------------|

E-----------------------------------|



bass or guitar

F#m E D D D D A

e----------------------------------------------|

B----------------------------------------------|

G----------------------------------------------|

D---9h11p9----------------------------7--------|

A---------12-9--7--5------5h7-5----7-----------|

E----------------------------------------------|





===

Verse #1



F#

Darling you never know



It started years ago

D A

When you listening kind of done

D F#m/C#

An adolescent singin' out real loud

F#m E

Some wild English tune:



"Sha la la la la la la

D F#m/C#

La la la la la la la la"

A Bm

We'll never talk it out this time

D

You'll learn from all of us

F#m/C#

When your time's up





===

Verse #2



F#

How it all began



Seriously dumb

D A

When you're less than kind of certain

D F#m/C#

An adolescent calling out real loud

F#m E

It's what singers do



Sing "sha la la la la la la

D F#m/C#

La la la la la la la la"

A Bm

We'll never talk it out this time

D

You'll learn from all of us

F#m/C#

When your time's up





---7p5-------------------|

-------7p5---------------|

-----------7p6-----------|

---------------9p7-------|

-------------------------|

-------------------------|





===

Pre - Chorus #1:



Bm

https://www.coveralia.com/acordes/bourgeois-phoenix.php

Bet your life on a cruise ship,

A

Bartending crucial lies

Bm

We're destined, wise

D E F#m A

And we socialize







F#m E D D D/E A

Bourgeois, why would you care for more?

F#m E D D D/E A

They give you almost everything

F#m E D D D/E A

You believed almost anything

F#m E D D D/E A

Bourgeois, your fire's a false alarm

F#m E D D D/E A

They give you almost everything

F#m E D D D/E A

You believed almost anything





===

Verse #



F#

Darling you never know



Darling you never know

D A

When you're less than kind of done

D F#m/C#

Adolescence lookin' at you now

F#m E

Like foreign legions do



Sing "sha la la la la la la



D F#m/C#

La la la la la la la la"

A Bm

We'll never talk it out this time

D

You'll learn from all of us

F#m/C# C#

when your time's up





===

Pre - Chorus #2



Bm

You lost your mind on a cruise ship,

A

Bartending crucial lies

Bm

We're destined, wise

D E F#m A

And we socialize







F#m E D D D/E A

Bourgeois, why would you care for more?

F#m E D D D/E A

They give you almost everything

F#m E D D D/E A

You believed almost anything

F#m E D D D/E A

Bourgeois, your fire's a false alarm

F#m E D D D/E A

They give you almost everything

F#m E D D D/E A

You believed almost anything

END







Letra subida por: Anónimo

Discos en los que aparece este acorde: Bankrupt! , Bankrupt! (Deluxe Edition)

El acorde de Bourgeois de Phoenix es una versión de la canción original realizada por colaboradores/usuarios de Coveralia.

¿Has encontrado algún error en esta página? Envíanos tu corrección del acorde