música
Buscador

Acorde de Book Of Love - Fleetwood Mac

Letra de Book Of Love





Intro

E A

|---------------------5--5----5-5-5------|

|--9--9----9-9-9------5--5----5-5-5------|

|--9--9----9-9-9------6--6----6-6-6------|

|--9--9----9-9-9------7--7----7-7-7------|

|--7--7----7-7-7------7--7----7-7-7------|

|---------------------5--5----5-5-5------|

| |

|-----0--------0---------0------0--------|

|----------------------------------------|

|----------------------------------------|

|--9-----9-9----------9-------9----------|

|----------------------------------------|

|----------------------------------------|





Verse (as intro)



E A

Walked out, goodbye

E A

I swore I never would cry

E A

Tore a page of my heart

E A

She wants me to be her friend

E A

I'm lonely again

E A

Tore a page of my heart





Chorus



E A B

Oh, tell me who wrote the book of love

E A B

Was it somebody from above

(Ha, ha, ha)

E A B

Surely he must know all the rules

(Ha, ha, ha)

E A B

Knowledge not meant for mortal fools

E A B

Must have been someone from above

E A E

Tell me, who wrote the book of love





Break (as Intro)



----------------------------------------

----------------------------------------

-----6---------9--8--6---/6-4-----------

--6-----9-----------------------6--4--2-

----------------------------------------

----------------------------------------





Verse



In silence the lonely make all their mistakes

Tore a page of my heart

Someone in heaven above

Shop me how to love

Tore a page of my heart





Chorus



Oh, tell me who wrote the book of love

Was it somebody from above

(Ha, ha, ha)

Surely he must know all the rules

(Ha, ha, ha)

Knowledge not meant for mortal fools

Must have been someone from above

https://www.coveralia.com/acordes/book-of-love-fleetwood-mac.php

Tell me, who wrote the book of love





Chorus/Outro-Solo



Oh, tell me who wrote the book of love

Was it somebody from above

(Ha, ha, ha)

Surely he must know all the rules

(Ha, ha, ha)

Knowledge not meant for mortal fools

Must have been someone from above

*

Tell me, who wrote the book of love



*Solo (Chords as Chorus)



|--19p16-------19p16-------19p16-------19p16--------19--|

|--------19p16-------19p16-------19p16-------19p16------|

|-------------------------------------------------------|

|-------------------------------------------------------|

|-------------------------------------------------------|

|-------------------------------------------------------|

x2



--19v---19v----19b--19p16--19p16------------------------------------

---------------------------------19---19b--19p16--19p16-------------

--------------------------------------------------------17----------

--------------------------------------------------------------------

--------------------------------------------------------------------

--------------------------------------------------------------------





------19--------------19b-19p16--19p16-----19b--19p16--19p16--------

--19b----19b-----19br------------------19--------------------19-19v-

--------------------------------------------------------------------

--------------------------------------------------------------------

--------------0-----------------------------------------------------

--------------------------------------------------------------------





-----------19-----19-----19-----19---------------16-19---19p16------

-19v---19b----19b----19b----19b-----19bv--19v-----------------------

--------------------------------------------------------------------

--------------------------------------------------------------------

--------------------------------------------------------------------

--------------------------------------------------------------------





-------19p16-------19p16--------19br----19b--19b-----19br--19b---------

-19----------19----------19--------------------------------------------

-----------------------------------------------------------------------

-----------------------------------------------------------------------

-----------------------------------------------------------------------

-----------------------------------------------------------------------





-19p16--19p16--------x-------------------------------------------------

--------------19----x---19br-p16--19p16----19b-------19b-19p16---------

----------------------------------------18-----------------------------

-----------------------------------------------------------------------

-----------------------------------------------------------------------

-----------------------------------------------------------------------





-----------------------------------------------------------------------

--19p16-----19p16----19p16----19v-----19b-19b--19v---------------------

--------18--------18-------18-------------------------18-16h18---------

-----------------------------------------------------------------------

-----------------------------------------------------------------------

-----------------------------------------------------------------------

*fade out



---------------19b--19p16-19p16-----19b--19br--------------------------

--------------------------------19-------------------------------------

--18--16v--------------------------------------------------------------

-----------------------------------------------------------------------

-----------------------------------------------------------------------

-----------------------------------------------------------------------

Letra subida por: Anónimo

Discos en los que aparece este acorde: Mirage , Mirage (Expanded Edition)

El acorde de Book Of Love de Fleetwood Mac es una versión de la canción original realizada por colaboradores/usuarios de Coveralia.

¿Has encontrado algún error en esta página? Envíanos tu corrección del acorde