música
Buscador

Acorde de Bomba de tiempo - Gustavo Cerati

Letra de Bomba de tiempo





Intro

D------------------------

A-------------3----------

E--5--5-5-3-5---0--0-3-3- x4 (sobre Am con la segunda guitarra)



Am x4 tiempos



Gm x2 tiempos



Am x2 tiempos



Gm



Esto es una bomba de tiempo nena

Am Gm

y nadie sabe como detenerla, como detenerla.



y ahora que los buitres sobrevuelan

Am

nuestro cuerpo es como un niño que se tensa, que se tensa.



Bm

Cuento desde cero

Am

ya sabemos como es

Bm

finalmente será cero

Am

cuando quiero correr

Cm

la tierra se abre

Am

ante mis pies.



D------------------------

A-------------3----------

E--5--5-5-3-5---0--0-3-3- x4



Gm



Esto es una bomba de tiempo nena

Am

lo mismo que nos une hoy nos desintegra, nos desintegra

https://www.coveralia.com/acordes/bomba-de-tiempo-gustavo-cerati.php
Gm

en la escenografía de la espera

Am

una chispa de más y así es como el incendio empieza, el incendio empieza.





Bm

Cuento desde cero

Am

ya sabemos como es

Bm

finalmente será cero

Am

cuando quiero correr

Cm

la tierra se abre

Am

ante mis pies.



D------------------------

A-------------3----------

E--5--5-5-3-5---0--0-3-3- x8



D--------------------

A-----3----------3---

E--5----0---5-5----0- x4 (bajo distorsionado)



Am x4 tiempos



A--------3--------------3-------

E--5-5-5---0-3-3--5-5-5---0-3-3-

Tierra.

A--------3--------------3-------

E--5-5-5---0-3-3--5-5-5---0-3-3-

Tragame tierra. x5



A--------3-------

E--5-5-5---0-3-3-

Ah! x4



A--------3-------

E--5-5-5---0-3-3- x4 (sobre riff improvisado con la tercera guitarra)



Am

Letra subida por: Anónimo

Discos en los que aparece este acorde: Ahi Vamos , Ahi Vamos (Edicion Especial) , Ahi Vamos (Dvd)

El acorde de Bomba de tiempo de Gustavo Cerati es una versión de la canción original realizada por colaboradores/usuarios de Coveralia.

¿Has encontrado algún error en esta página? Envíanos tu corrección del acorde