música
Buscador

Acorde de Black Out - Loquero

e|------------------------------------|

B|----------------------1-1-1-1---3~--|

G|--2-2-2-2---4-4-4-4-----------------|

D|------------------------------------|

A|------------------------------------|

E|------------------------------------|

Amanecí sin ver el sol dijo el pastor

A# C D F-G-F-D

y los “salieris” aplaudieron.



e|------------------------------------|

B|----------------------1-1-1-1---3~--|

G|--2-2-2-2---4-4-4-4-----------------|

D|------------------------------------|

A|------------------------------------|

E|------------------------------------|

Que se encienda el motor de la compasión,

A# C D F-C

que somos varios al entierro.





A# F

Si no lo veo no lo creo, corazón,

C A

me cambiaste por un agujero.

A# F

Debe ser que estabas llena de miedo

A# C D F-G-F

y un pobre hueco, sólo eso.





e|------------------------------------|

B|----------------------1-1-1-1---3~--|

G|--2-2-2-2---4-4-4-4-----------------|

D|------------------------------------|

A|------------------------------------|

E|------------------------------------|

No soy de visitar las tumbas, no señor,

A# C D F-G-F

pero le canto a mis amigos.



e|------------------------------------|

B|----------------------1-1-1-1---3~--|

G|--2-2-2-2---4-4-4-4-----------------|

D|------------------------------------|

A|------------------------------------|

E|------------------------------------|

Ellos renuevan mi color y mi visión,

A# C D F-C

puedo volver a ser un niño.





A# F

Si no lo veo no lo creo, corazón,

C A

me cambiaste por un agujero.

A# F

Debe ser que estabas llena de mierda

A# C D F-G-F-D

https://www.coveralia.com/acordes/black-out-loquero.php
y un pobre hueco, sólo eso.





(silencio)

Dime que has hecho con este dolor,

A# C D F-G-F-D

ha transformado tu desidia.

(silencio)

Tal vez actué como un remendón

A# C D F-C

que pone parches en los pavos.





A# F

Si no lo veo no lo creo, corazón,

C A

me cambiaste por un agujero.

A# F

Debe ser que estabas llena de mierda

A# C D

y un pobre hueco, sólo eso,

A# C D

y un pobre hueco, sólo eso,

A# C A# C

y un pobre hueco, y un pobre hueco,

A# C D

y un pobre hueco es para esto.





FINAL: F*-C*

F*-E-F*-E

D











--------------

|Acordes usados|

--------------



A#5 C5 D5 F5 G5

e|-----| e|-----| e|-----| e|-----| e|-----|

B|-----| B|-----| B|-----| B|-----| B|-----|

G|--3--| G|--5--| G|--7--| G|-----| G|-----|

D|--3--| D|--5--| D|--7--| D|--3--| D|--5--|

A|--1--| A|--3--| A|--5--| A|--3--| A|--5--|

E|-----| E|-----| E|-----| E|--1--| E|--3--|



A5 F5* C5* E5

e|-----| e|------| e|------| e|-----|

B|-----| B|------| B|------| B|-----|

G|-----| G|--10--| G|------| G|--9--|

D|--7--| D|--10--| D|--10--| D|--9--|

A|--7--| A|--8---| A|--10--| A|--7--|

E|--5--| E|------| E|--8---| E|-----|



Letra subida por: Anónimo

Discos en los que aparece este acorde: Electroshow (Disco 2) , Electroshow (Dvd)

El acorde de Black Out de Loquero es una versión de la canción original realizada por colaboradores/usuarios de Coveralia.

¿Has encontrado algún error en esta página? Envíanos tu corrección del acorde