música
Buscador

Acorde de Big Blue Sun - Adrian Belew

Letra de Big Blue Sun



C G-

When the summer clouds roll around the sky

D- F-

and a strand of stars sparkle in the night

C C5+

let me take your worry from you

C6 C7

let me make a world around you

E- E-2 G

let me love you like nobody ever tried



C G-

When the lazy days come to lay around the lake

D- F-

and the rays of sun run among the waves

C C5+

don't you think about tomorrow

C6 C7

don't you drink a drop of sorrow

E- E-2 G

don't you look upon the past or wonder why



A- G

Let it roll down your shoulder

A- D-

let it fall on the floor



riff1

I'll be loving you like the water loves the shore

A- G

let it fall from your fingers

A- D-

let it go, let it come

riff2 C

I'll be loving you like the summer loves the big blue sun

G-

The big blue sun

D- F-

The big blue sun



C

When the summer clouds roll around

G-

the stars in the night

D-

and the lazy days lay around

F-

the morning light

C C5+

let me take your worry from you

https://www.coveralia.com/acordes/big-blue-sun-adrian-belew.php
C6 C7

let me make a world around you

E- E-2 G

let me love you like nobody ever tried



A- G

let it roll down your shoulder

A- D-

let it fall on the floor

riff1

I'll be loving you like the water loves the shore

A- G

let it fall from your fingers

A- D-

let it go, let it come

riff2 C

I'll be loving you like the summer loves the big blue sun

G-

The big blue sun

D- F- C

The big blue sun



Riff 1 is something like this

E|-----------|-----------|-----------|-------|

B|--3-3-3-3--|--3-3-5-5--|--6-6-6-6--|---6---|

G|--2-2-0-0--|--0-0-0-0--|--0-0-0-0--|---0---|

D|--0-0-2-2--|--3-3-5-5--|--6-6-6-6--|---5---|

A|-----------|-----------|-----------|-------|

E|-----------|-----------|-----------|-------|



Riff 2 is something like this

E|-----------|-----------|-----------|-----------|

B|--3-3-3-3--|--3-3-5-5--|--6-6-6-6--|---6---3---|

G|--2-2-0-0--|--0-0-0-0--|--0-0-0-0--|---0---0---|

D|--0-0-2-2--|--3-3-5-5--|--6-6-6-6--|---5---2---|

A|-----------|-----------|-----------|-----------|

E|-----------|-----------|-----------|-----------|



Some chords



C C5+ C6 C7 E- E-2

E|----0----|----0----|----0----|----0----|----0----|----0----|

B|----1----|----1----|----1----|----1----|----0----|----0----|

G|----0----|----1----|----2----|----3----|----0----|----0----|

D|----2----|----2----|----2----|----2----|----2----|----3----|

A|----3----|----3----|----3----|----3----|----2----|----2----|

E|----0----|----0----|----0----|----0----|----0----|----0----|







Letra subida por: Anónimo

Discos en los que aparece este acorde: Inner Revolution , Belew Prints: The Acoustic Adrian Belew, Volume 2

El acorde de Big Blue Sun de Adrian Belew es una versión de la canción original realizada por colaboradores/usuarios de Coveralia.

¿Has encontrado algún error en esta página? Envíanos tu corrección del acorde