música
Buscador

Acorde de Besos Prohibido - Ana Gabriel

Letra de Besos Prohibido

INTRO





D#m-D# G#m G#m-D#m D#m-D#m-Bb Bb-D#m



e ------6-6-7-------6-----------6------------

B --8-9---------7-9----7-7/6-6-----7--6------

G ---------------------------------------8---

D -------------------------------------------

A -------------------------------------------

E -------------------------------------------



D#m-D# G#m G#m-D#m D#m-D#m-Bb Bb-D#m



e ------6-6-7-------6-----------6------------

B --8-9---------7-9----7-7/6-6----7-6--------

G ------------------------------------8------

D -------------------------------------------

A -------------------------------------------

E -------------------------------------------





VERSO



D#m G#m

Esta noche tu me enciendes

C# F#

poco a poco, lentamente

G#m D#m

Ya eres dueño de mi mente

F Bb Bb-D#m-Bb

porque abusas sin piedad.



D#m G#m

Y me miras insistente

C# F#

me cortejas suavemente

G#m D#m

como un gato de barriada

F

rondas por el tejado

Bb Bb7

en las madrugadas.



CORO



D#m Bbm D#m C#

Porque robas mis sueños...salteador

B Bb D#m

siempre estas al acecho...el ladrón,

D#m Bbm D#m C#

un pretesto un descuido...y vendras

B Bb D#m

a robar mis sentidos,...volveras.



D#m Bbm D#m C#

Porque robas mis sueños...salteador

B Bb D#m

siempre estas al acecho...el ladrón,

D#m Bbm D#m C#

un pretesto un descuido...y vendras

B Bb D#m

a robar mis sentidos,...volveras.



D#m Bbm D#m

son tus besos prohibidos

C# B Bb D#m

para mi para mi para miiiiii

D#m Bbm D#m

son tus besos prohibidos

C# B Bb D#m

para mi ayayayaaaaaaha.





INTRO





D#m-D# G#m G#m-D#m D#m-D#m-Bb Bb-D#m



e ------6-6-7-------6-----------6------------

B --8-9---------7-9----7-7/6-6-----7--6------

G ---------------------------------------8---

https://www.coveralia.com/acordes/besos-prohibido-ana-gabriel.php

D -------------------------------------------

A -------------------------------------------

E -------------------------------------------



D#m-D# G#m G#m-D#m D#m-D#m-Bb Bb-D#m



e ------6-6-7-------6-----------6------------

B --8-9---------7-9----7-7/6-6----7-6--------

G ------------------------------------8------

D -------------------------------------------

A -------------------------------------------

E -------------------------------------------





D#m G#m

El es noble es tu amigo

C# F#

y me hablo mucho de ti

G#m D#m

no hay razones no hay disculpas

D#m-F

el me ama y lo amo

D#m-F Bb Bb7

y me duele engañarlo.



CORO



D#m Bbm D#m C#

Porque robas mis sueños...salteador

B Bb D#m

siempre estas al acecho...el ladrón,

D#m Bbm D#m C#

un pretesto un descuido...y vendras

B Bb D#m

a robar mis sentidos,...volveras.



D#m Bbm D#m C#

Porque robas mis sueños...salteador

B Bb D#m

siempre estas al acecho...el ladrón,

D#m Bbm D#m C#

un pretesto un descuido...y vendras

B Bb D#m

a robar mis sentidos,...volveras.



CORO (2)



D#m Bbm D#m

son tus besos prohibidos

C# B Bb D#m

para mi ayayayaaaaaaha.



D#m Bbm D#m

son tus besos prohibidos

C# B Bb D#m

para mi para mi para miiiiii



D#m Bbm D#m

son tus besos prohibidos

C# B Bb D#m

para mi ayayayaaaaaaha.



INTRO (X2)



D#m-D# G#m G#m-D#m D#m-D#m-Bb Bb-D#m



e ------6-6-7-------6-----------6------------

B --8-9---------7-9----7-7/6-6-----7--6------

G ---------------------------------------8---

D -------------------------------------------

A -------------------------------------------

E -------------------------------------------



D#m-D# G#m G#m-D#m D#m-D#m-Bb Bb-D#m



e ------6-6-7-------6-----------6------------

B --8-9---------7-9----7-7/6-6----7-6--------

G ------------------------------------8------

D -------------------------------------------

A -------------------------------------------

E -------------------------------------------

Letra subida por: Anónimo

Discos en los que aparece este acorde: Sagitario

El acorde de Besos Prohibido de Ana Gabriel es una versión de la canción original realizada por colaboradores/usuarios de Coveralia.

¿Has encontrado algún error en esta página? Envíanos tu corrección del acorde