música
Buscador

Acorde de Be Free With Your Love - Spandau Ballet

Letra de Be Free With Your Love


Capo 2

[Intro]
e------------------------|---------------------|
B--------0---------------|---------0-----------|
G------2----2------0-2-0-|-------2---2-----0-2-|
D----2-----------0-------|-----2---------------|
A--0---------------------|---0-----------------|
E--------------3---------|--------------3------|

Be free with your love     Free with your love
e------------------------|---------------------|
B--------0---------------|---------0-----------|
G------2----2------0-2-0-|-------2---2-----0-2-|
D----2-----------0-------|-----2---------------|
A--0---------------------|---0-----------------|
E--------------3---------|--------------3------|

Be free with your love Free with your love
e------------------------|--------------3--|
B--------0---------------|---------0----3--|
G------2----2------0-2-0-|-------2---2--0--|
D----2-----------0-------|-----2--------0--|
A--0---------------------|---0----------0--|
E--------------3---------|--------------3--|


[Verse]
A         Bm         G
Two young babes in a foreign land
A       Bm            G
Draw no milk from the dusty sand
A           Bm            G      
Close their eyes from the night so cold
A        Bm            G
Feel the love in their mothers hold
A       Bm             G 
Two old men on their different shores
A           Bm               G
Stretch the world with their tug of war
A       Bm            G          
Tension pulls on a tightening cord
A           Bm        G
Spread your love over Mans discord
G
Life's your reward
G
So sing it to your Lord


[Chorus]
                  A    G
Be free with your love
               A   Bm G
Free with your love
                  A   Bm G
Be free with your love
               A    Bm G
Free with your love

A Bm G
A Bm G


[Verse]
A         Bm       G
Science stands on threshold of life
A           Bm        G
Man could be cut by a blow of its knife
A       Bm        G
Time to live by a new resolution
A      Bm        G
In the spirit of loves evolution
A         Bm            G
Two young girls shining in the sun
A         Bm            G
Feel your pain but they dance for everyone
A      Bm             G
Beauty lives in their innocent glow
A         Bm             G
Things so dear should be free to let grow
G
So let your heart flow
G
And sing it to your soul


[Chorus]
                  A    G
Be free with your love
               A   Bm G
Free with your love
                  A   Bm G
Be free with your love
               A    Bm G
Free with your love
                  A    Bm G
Be free with your love
               A    Bm G
Free with your love
                           A    Bm G
Now baby, be free wih your love
               A    Bm G
Free with your love


[Solo]
A Bm G A Bm G
A Bm G A Bm G
A Bm G A Bm G
A Bm G A Bm G
G G G


[Chorus]
                  A    G
Be free with your love
               A   Bm G
Free with your love
                  A   Bm G
Be free with your love
               A    Bm G
Free with your love
                  A    Bm G
Be free with your love
               A    Bm G
Free with your love
                           A    Bm G
Now baby, be free wih your love
               A    Bm G
Free with your love
                  A   Bm  G
Be free with your love
               A   Bm G
Free with your love
                  A   Bm G
Be free with your love
               A    Bm G
Free with your love


Letra subida por: Anónimo

Discos en los que aparece este acorde: Gold , , , Heart Like A Sky

El acorde de Be Free With Your Love de Spandau Ballet es una versión de la canción original realizada por colaboradores/usuarios de Coveralia.

¿Has encontrado algún error en esta página? Envíanos tu corrección del acorde