música
Buscador

Acorde de Barriendo Estrellas - Huecco

Letra de Barriendo Estrellas

Intro:

(A.) C#m      B  Bmaj7* E         B
e:------------------------------------------|-
b:----5----5--4----7-----9----9----7----7---|-
g:------6---6--4-----------9---9-----8---8--|-
D:-------6-----------9------9---------9-----|-
A:----4------------6-----7------------------|-
E:---------------------------------7--------|-
           |------|
           Staccato

     C#m      B  Bmaj7* E       B  F#m
e:------------------------------------------|
b:----5----5--4----7-----9----9----7/--10---|
g:------6---6--4-----------9---9------------|
D:-------6-----------9------9---------------|
A:----4------------6-----7-------------9----|
E:---------------------------------7/-------|
           |------|
           Staccato

“Para los estrofas (A.) se tocan los mismos arpegios de la Intro”

(A.)
C#m  B Bmaj7*
Uuh…
E             B              C#m B Bmaj7* E B F#m
Le he dado un mordisquito al cielo
C#m  B Bmaj7*
Uuh..
E          B            C#m B Bmaj7* E B F#m
Para hacer realidad mis sueños.
(B.)
Uuuh…
(C.)
Me siento vivo lejos del miedo.

-----0-----

(B.)  A                D#dim
e:-----------------------------------------|
b:---------5----5-----------7-----7--------|
g:-------6--6-----6-------8--8------8------|
D:------7-----6-----6----7------7-----7----|
A:----7----------------6-------------------|
E:-----------------------------------------|

(C.) C#m      G#       A       B
e:-----------------------------7-----------|
b:--------5--------4-------5---7-----------|
g:------6--6-----5--4----6--6--8-----------|
D:-----6--------6-------7------9-----------|
A:---4-------------------------9-----------|
E:------------4--------5-------7-----------|

-----0-----

(A.)
C#m  Gm Bmaj7*
Uuh…
E       B            C#m B Bmaj7* E B F#m
Y ya no lloran los pañuelos.
C#m  G#m Bmaj7*
Uhh…
E       B            C#m B Bmaj7* E B F#m
La brisa abanica otra vez mi pelo.
(B.)
Uuuh…
(C.)
Me siento libre


(Rasgueado - se pueden tocar como acordes de poder)

C#m A E         B               C#m  A
Vivo cada instante que estoy contigo.
               E                     B
La pena que se vaya y que nos deje a solas.
C#m  A   E        B             C#m  A
Sonrío, aún me queda un largo camino.
 E        B           C#m A E B
Soy el dueño de mi destino

(A.)

(A.)
C#m  B Bmaj7*
Uuh…
E       B            C#m B Bmaj7* E B F#m
El perfume de un mundo nuevo.
C#m  G#m Bmaj7*
Uh…
E       B            C#m B Bmaj7* E B F#m
Un día más siento que puedo.
(B.)
Uuuh…
(C.)
Me siento fuerte.

C#m A E         B               C#m  A
Vivo cada instante que estoy contigo.
               E                     B
La pena que se vaya y que nos deje a solas.
C#m  A   E        B             C#m  A
Sonrío, aún me queda un largo camino.
 E        B           C#m A E B
Soy el dueño de mi destino

Solo:

e:--------------------------------------------------------------|
b:--------------------------------------------------------------|
g:--------------------------------------------------------------|
D:--------------------------------------------------------------|
A:--4-66-7---66-7---66-7---66-7-4-66-7---66-7-----66-7----66-7--|
E:---------4------5------7-------------4------555------7-7------|

C#m                 G#
Mi mano en tu mano, mi boca en tu boca.
A                  B
Un beso nos damos, la vida está loca.
C#m              G#                 A
Aquí nos amamos, aquí nos gustamos, sentimos, reímos
F#*          B   G#*
Y nos admiramos, nos adoramos.
G#*
Y lloro, canto, chillo y grito porque
C#m A E         B               C#m A E B
Vivo cada instante que estoy contigo.

C#m  A   E        B             C#m  A
Sonrío, aún me quedá un largo camino.
B           E               C#m  A
barriendo estrellas bajo el frío.
E         B           C#m A E B
soy el dueño de mi destino.

C#m
Pom-porom-pom
G#
Pom-porom-pom
A
Pom-porom-pom
B
bailo-bailo... (x10)

C#m
Sii…

-----

Acordes:

  F#* G#*
E  6   8
B  7   9
G  6   8
D  8   10
A  9   11
E  x   x


Letra subida por: Anónimo

Discos en los que aparece este acorde: Dame Vida

El acorde de Barriendo Estrellas de Huecco es una versión de la canción original realizada por colaboradores/usuarios de Coveralia.

¿Has encontrado algún error en esta página? Envíanos tu corrección del acorde